  0
SECTION
  2
HEADER
  9
$ACADVER
  1
AC1014
  9
$ACADMAINTVER
 70
     5
  9
$DWGCODEPAGE
  3
ANSI_1252
  9
$INSBASE
 10
0.0
 20
0.0
 30
0.0
  9
$EXTMIN
 10
-8.870521
 20
-8.841726
 30
0.0
  9
$EXTMAX
 10
474.815216
 20
611.665142
 30
0.0
  9
$LIMMIN
 10
0.0
 20
0.0
  9
$LIMMAX
 10
420.0
 20
297.0
  9
$ORTHOMODE
 70
     1
  9
$REGENMODE
 70
     1
  9
$FILLMODE
 70
     1
  9
$QTEXTMODE
 70
     0
  9
$MIRRTEXT
 70
     0
  9
$DRAGMODE
 70
     2
  9
$LTSCALE
 40
1.0
  9
$OSMODE
 70
    39
  9
$ATTMODE
 70
     1
  9
$TEXTSIZE
 40
3.5
  9
$TRACEWID
 40
0.05
  9
$TEXTSTYLE
  7
ROMANS
  9
$CLAYER
  8
0
  9
$CELTYPE
  6
BYLAYER
  9
$CECOLOR
 62
   256
  9
$CELTSCALE
 40
1.0
  9
$DELOBJ
 70
     1
  9
$DISPSILH
 70
     0
  9
$DIMSCALE
 40
1.0
  9
$DIMASZ
 40
2.5
  9
$DIMEXO
 40
1.5
  9
$DIMDLI
 40
5.0
  9
$DIMRND
 40
0.0
  9
$DIMDLE
 40
0.0
  9
$DIMEXE
 40
1.0
  9
$DIMTP
 40
0.0
  9
$DIMTM
 40
0.0
  9
$DIMTXT
 40
3.0
  9
$DIMCEN
 40
0.0
  9
$DIMTSZ
 40
0.0
  9
$DIMTOL
 70
     0
  9
$DIMLIM
 70
     0
  9
$DIMTIH
 70
     0
  9
$DIMTOH
 70
     0
  9
$DIMSE1
 70
     0
  9
$DIMSE2
 70
     0
  9
$DIMTAD
 70
     1
  9
$DIMZIN
 70
     8
  9
$DIMBLK
  1

  9
$DIMASO
 70
     1
  9
$DIMSHO
 70
     1
  9
$DIMPOST
  1

  9
$DIMAPOST
  1

  9
$DIMALT
 70
     0
  9
$DIMALTD
 70
     2
  9
$DIMALTF
 40
25.4
  9
$DIMLFAC
 40
1.0
  9
$DIMTOFL
 70
     1
  9
$DIMTVP
 40
0.0
  9
$DIMTIX
 70
     0
  9
$DIMSOXD
 70
     0
  9
$DIMSAH
 70
     0
  9
$DIMBLK1
  1

  9
$DIMBLK2
  1

  9
$DIMSTYLE
  2
STANDAARD
  9
$DIMCLRD
 70
   256
  9
$DIMCLRE
 70
   256
  9
$DIMCLRT
 70
     2
  9
$DIMTFAC
 40
0.75
  9
$DIMGAP
 40
1.0
  9
$DIMJUST
 70
     0
  9
$DIMSD1
 70
     0
  9
$DIMSD2
 70
     0
  9
$DIMTOLJ
 70
     1
  9
$DIMTZIN
 70
     8
  9
$DIMALTZ
 70
     8
  9
$DIMALTTZ
 70
     8
  9
$DIMFIT
 70
     0
  9
$DIMUPT
 70
     0
  9
$DIMUNIT
 70
     2
  9
$DIMDEC
 70
     2
  9
$DIMTDEC
 70
     2
  9
$DIMALTU
 70
     2
  9
$DIMALTTD
 70
     2
  9
$DIMTXSTY
  7
ROMANS
  9
$DIMAUNIT
 70
     0
  9
$LUNITS
 70
     2
  9
$LUPREC
 70
     2
  9
$SKETCHINC
 40
0.1
  9
$FILLETRAD
 40
10.0
  9
$AUNITS
 70
     0
  9
$AUPREC
 70
     2
  9
$MENU
  1
wtb2
  9
$ELEVATION
 40
0.0
  9
$PELEVATION
 40
0.0
  9
$THICKNESS
 40
0.0
  9
$LIMCHECK
 70
     0
  9
$BLIPMODE
 70
     0
  9
$CHAMFERA
 40
1.6
  9
$CHAMFERB
 40
2.5
  9
$CHAMFERC
 40
0.0
  9
$CHAMFERD
 40
0.0
  9
$SKPOLY
 70
     0
  9
$TDCREATE
 40
2452466.423157523
  9
$TDUPDATE
 40
2452466.680168379
  9
$TDINDWG
 40
0.0056112616
  9
$TDUSRTIMER
 40
0.0056112616
  9
$USRTIMER
 70
     1
  9
$ANGBASE
 50
0.0
  9
$ANGDIR
 70
     0
  9
$PDMODE
 70
     3
  9
$PDSIZE
 40
0.0
  9
$PLINEWID
 40
0.0
  9
$COORDS
 70
     2
  9
$SPLFRAME
 70
     0
  9
$SPLINETYPE
 70
     6
  9
$SPLINESEGS
 70
     8
  9
$ATTDIA
 70
     0
  9
$ATTREQ
 70
     1
  9
$HANDLING
 70
     1
  9
$HANDSEED
  5
17BE
  9
$SURFTAB1
 70
     6
  9
$SURFTAB2
 70
     6
  9
$SURFTYPE
 70
     6
  9
$SURFU
 70
     6
  9
$SURFV
 70
     6
  9
$UCSNAME
  2

  9
$UCSORG
 10
0.0
 20
0.0
 30
0.0
  9
$UCSXDIR
 10
1.0
 20
0.0
 30
0.0
  9
$UCSYDIR
 10
0.0
 20
1.0
 30
0.0
  9
$PUCSNAME
  2

  9
$PUCSORG
 10
0.0
 20
0.0
 30
0.0
  9
$PUCSXDIR
 10
1.0
 20
0.0
 30
0.0
  9
$PUCSYDIR
 10
0.0
 20
1.0
 30
0.0
  9
$USERI1
 70
     0
  9
$USERI2
 70
     0
  9
$USERI3
 70
     0
  9
$USERI4
 70
     0
  9
$USERI5
 70
     0
  9
$USERR1
 40
0.0
  9
$USERR2
 40
0.0
  9
$USERR3
 40
0.0
  9
$USERR4
 40
0.0
  9
$USERR5
 40
0.0
  9
$WORLDVIEW
 70
     1
  9
$SHADEDGE
 70
     3
  9
$SHADEDIF
 70
    70
  9
$TILEMODE
 70
     1
  9
$MAXACTVP
 70
    16
  9
$PINSBASE
 10
0.0
 20
0.0
 30
0.0
  9
$PLIMCHECK
 70
     0
  9
$PEXTMIN
 10
1.000000E+20
 20
1.000000E+20
 30
1.000000E+20
  9
$PEXTMAX
 10
-1.000000E+20
 20
-1.000000E+20
 30
-1.000000E+20
  9
$PLIMMIN
 10
0.0
 20
0.0
  9
$PLIMMAX
 10
12.0
 20
9.0
  9
$UNITMODE
 70
     0
  9
$VISRETAIN
 70
     0
  9
$PLINEGEN
 70
     0
  9
$PSLTSCALE
 70
     0
  9
$TREEDEPTH
 70
  3020
  9
$PICKSTYLE
 70
     1
  9
$CMLSTYLE
  2
STANDARD
  9
$CMLJUST
 70
     0
  9
$CMLSCALE
 40
1.0
  9
$PROXYGRAPHICS
 70
     1
  9
$MEASUREMENT
 70
     1
  0
ENDSEC
  0
SECTION
  2
CLASSES
  0
CLASS
  1
LWPOLYLINE
  2
AcDbPolyline
  3
"AutoCAD"
 90
        0
280
     0
281
     1
  0
CLASS
  1
AMLOADER
  2
AMLoader
  3
AMAcad
 90
        0
280
     0
281
     0
  0
ENDSEC
  0
SECTION
  2
TABLES
  0
TABLE
  2
VPORT
  5
8
100
AcDbSymbolTable
 70
     2
  0
VPORT
  5
17BD
100
AcDbSymbolTableRecord
100
AcDbViewportTableRecord
  2
*ACTIVE
 70
     0
 10
0.0
 20
0.0
 11
1.0
 21
1.0
 12
232.972348
 22
301.411708
 13
0.0
 23
0.0
 14
2.5
 24
2.5
 15
5.0
 25
5.0
 16
0.0
 26
0.0
 36
1.0
 17
0.0
 27
0.0
 37
0.0
 40
627.491936
 41
1.650376
 42
50.0
 43
0.0
 44
0.0
 50
0.0
 51
0.0
 71
     0
 72
 20000
 73
     1
 74
     0
 75
     0
 76
     0
 77
     0
 78
     1
  0
ENDTAB
  0
TABLE
  2
LTYPE
  5
5
100
AcDbSymbolTable
 70
     1
  0
LTYPE
  5
12
100
AcDbSymbolTableRecord
100
AcDbLinetypeTableRecord
  2
BYBLOCK
 70
     0
  3

 72
    65
 73
     0
 40
0.0
  0
LTYPE
  5
13
100
AcDbSymbolTableRecord
100
AcDbLinetypeTableRecord
  2
BYLAYER
 70
     0
  3

 72
    65
 73
     0
 40
0.0
  0
LTYPE
  5
14
100
AcDbSymbolTableRecord
100
AcDbLinetypeTableRecord
  2
CONTINUOUS
 70
     0
  3
Solid line
 72
    65
 73
     0
 40
0.0
  0
ENDTAB
  0
TABLE
  2
LAYER
  5
2
100
AcDbSymbolTable
 70
     4
  0
LAYER
  5
F
100
AcDbSymbolTableRecord
100
AcDbLayerTableRecord
  2
0
 70
     0
 62
     8
  6
CONTINUOUS
  0
LAYER
  5
996
100
AcDbSymbolTableRecord
100
AcDbLayerTableRecord
  2
VHH-050
 70
     0
 62
     4
  6
CONTINUOUS
  0
LAYER
  5
997
100
AcDbSymbolTableRecord
100
AcDbLayerTableRecord
  2
VHH-025
 70
     0
 62
     7
  6
CONTINUOUS
  0
LAYER
  5
998
100
AcDbSymbolTableRecord
100
AcDbLayerTableRecord
  2
VHH-070
 70
     0
 62
     4
  6
CONTINUOUS
  0
ENDTAB
  0
TABLE
  2
STYLE
  5
3
100
AcDbSymbolTable
 70
     2
  0
STYLE
  5
10
100
AcDbSymbolTableRecord
100
AcDbTextStyleTableRecord
  2
STANDARD
 70
     0
 40
0.0
 41
1.0
 50
0.0
 71
     0
 42
15.0
  3
txt
  4

  0
STYLE
  5
1C
100
AcDbSymbolTableRecord
100
AcDbTextStyleTableRecord
  2
ROMANS
 70
     0
 40
0.0
 41
1.0
 50
0.0
 71
     0
 42
3.5
  3
romans
  4

  0
ENDTAB
  0
TABLE
  2
VIEW
  5
6
100
AcDbSymbolTable
 70
     2
  0
VIEW
  5
600
100
AcDbSymbolTableRecord
100
AcDbViewTableRecord
  2
VIEW0
 70
     0
 40
297.0
 10
210.0
 20
148.5
 41
420.0
 11
0.0
 21
0.0
 31
1.0
 12
0.0
 22
0.0
 32
0.0
 42
50.0
 43
0.0
 44
0.0
 50
0.0
 71
     0
  0
VIEW
  5
601
100
AcDbSymbolTableRecord
100
AcDbViewTableRecord
  2
VIEW1
 70
     0
 40
297.0
 10
210.0
 20
148.5
 41
420.0
 11
0.0
 21
0.0
 31
1.0
 12
0.0
 22
0.0
 32
0.0
 42
50.0
 43
0.0
 44
0.0
 50
0.0
 71
     0
  0
ENDTAB
  0
TABLE
  2
UCS
  5
7
100
AcDbSymbolTable
 70
     0
  0
ENDTAB
  0
TABLE
  2
APPID
  5
9
100
AcDbSymbolTable
 70
     3
  0
APPID
  5
11
100
AcDbSymbolTableRecord
100
AcDbRegAppTableRecord
  2
ACAD
 70
     0
  0
APPID
  5
37E
100
AcDbSymbolTableRecord
100
AcDbRegAppTableRecord
  2
ADMEPROFILELINK
 70
     0
  0
APPID
  5
974
100
AcDbSymbolTableRecord
100
AcDbRegAppTableRecord
  2
AMACAD
 70
     0
  0
ENDTAB
  0
TABLE
  2
DIMSTYLE
  5
A
100
AcDbSymbolTable
 70
     2
  0
DIMSTYLE
105
4E
100
AcDbSymbolTableRecord
100
AcDbDimStyleTableRecord
  2
STANDARD
 70
     0
  3

  4

  5

  6

  7

 40
1.0
 41
2.2
 42
1.5
 43
7.0
 44
1.2
 45
0.0
 46
0.0
 47
0.0
 48
0.0
140
2.5
141
-3.0
142
0.0
143
25.4
144
1.0
145
0.0
146
1.0
147
0.5
 71
     0
 72
     0
 73
     0
 74
     0
 75
     0
 76
     0
 77
     1
 78
     8
170
     0
171
     2
172
     1
173
     0
174
     0
175
     0
176
   256
177
   256
178
     2
270
     2
271
     4
272
     4
273
     2
274
     2
340
10
275
     0
280
     0
281
     0
282
     0
283
     1
284
     0
285
     0
286
     0
287
     3
288
     0
  0
DIMSTYLE
105
190
100
AcDbSymbolTableRecord
100
AcDbDimStyleTableRecord
  2
STANDAARD
 70
     0
  3

  4

  5

  6

  7

 40
1.0
 41
2.5
 42
1.5
 43
5.0
 44
1.0
 45
0.0
 46
0.0
 47
0.0
 48
0.0
140
3.0
141
0.0
142
0.0
143
25.4
144
1.0
145
0.0
146
0.75
147
1.0
 71
     0
 72
     0
 73
     0
 74
     0
 75
     0
 76
     0
 77
     1
 78
     8
170
     0
171
     2
172
     1
173
     0
174
     0
175
     0
176
   256
177
   256
178
     2
270
     2
271
     2
272
     2
273
     2
274
     2
340
1C
275
     0
280
     0
281
     0
282
     0
283
     1
284
     8
285
     8
286
     8
287
     0
288
     0
  0
ENDTAB
  0
TABLE
  2
BLOCK_RECORD
  5
1
100
AcDbSymbolTable
 70
     4
  0
BLOCK_RECORD
  5
18
100
AcDbSymbolTableRecord
100
AcDbBlockTableRecord
  2
*MODEL_SPACE
  0
BLOCK_RECORD
  5
15
100
AcDbSymbolTableRecord
100
AcDbBlockTableRecord
  2
*PAPER_SPACE
  0
BLOCK_RECORD
  5
1B2
100
AcDbSymbolTableRecord
100
AcDbBlockTableRecord
  2
TEK_INFO
  0
BLOCK_RECORD
  5
987
100
AcDbSymbolTableRecord
100
AcDbBlockTableRecord
  2
A$C7A7B4A19
  0
BLOCK_RECORD
  5
98C
100
AcDbSymbolTableRecord
100
AcDbBlockTableRecord
  2
A$C605007EB
  0
BLOCK_RECORD
  5
991
100
AcDbSymbolTableRecord
100
AcDbBlockTableRecord
  2
A$C32063EEB
  0
ENDTAB
  0
ENDSEC
  0
SECTION
  2
BLOCKS
  0
BLOCK
  5
46
100
AcDbEntity
  8
0
100
AcDbBlockBegin
  2
*MODEL_SPACE
 70
     0
 10
0.0
 20
0.0
 30
0.0
  3
*MODEL_SPACE
  1

  0
ENDBLK
  5
47
100
AcDbEntity
  8
0
100
AcDbBlockEnd
  0
BLOCK
  5
44
100
AcDbEntity
 67
     1
  8
0
100
AcDbBlockBegin
  2
*PAPER_SPACE
 70
     0
 10
0.0
 20
0.0
 30
0.0
  3
*PAPER_SPACE
  1

  0
ENDBLK
  5
45
100
AcDbEntity
 67
     1
  8
0
100
AcDbBlockEnd
  0
BLOCK
  5
1B9
100
AcDbEntity
  8
0
100
AcDbBlockBegin
  2
TEK_INFO
 70
     2
 10
0.0
 20
0.0
 30
0.0
  3
TEK_INFO
  1

  0
ATTDEF
  5
276
100
AcDbEntity
  8
0
100
AcDbText
 10
15.0
 20
31.5
 30
0.0
 40
2.5
  1
A3
  7
ROMANS
100
AcDbAttributeDefinition
  3

  2
FORMAAT
 70
     9
  0
ATTDEF
  5
277
100
AcDbEntity
  8
0
100
AcDbText
 10
15.0
 20
27.5
 30
0.0
 40
2.5
  1
hor
  7
ROMANS
100
AcDbAttributeDefinition
  3

  2
POSITIE
 70
     9
  0
ATTDEF
  5
278
100
AcDbEntity
  8
0
100
AcDbText
 10
15.0
 20
23.5
 30
0.0
 40
2.5
  1
1
  7
ROMANS
100
AcDbAttributeDefinition
  3

  2
AANTAL
 70
     9
  0
ATTDEF
  5
279
100
AcDbEntity
  8
0
100
AcDbText
 10
15.0
 20
19.5
 30
0.0
 40
2.5
  1
1
  7
ROMANS
100
AcDbAttributeDefinition
  3

  2
TEKSCHAAL
 70
     9
  0
ATTDEF
  5
27A
100
AcDbEntity
  8
0
100
AcDbText
 10
15.0
 20
15.5
 30
0.0
 40
2.5
  1
1
  7
ROMANS
100
AcDbAttributeDefinition
  3

  2
SNAPSCHAAL
 70
     9
  0
ATTDEF
  5
27B
100
AcDbEntity
  8
0
100
AcDbText
 10
15.0
 20
11.5
 30
0.0
 40
2.5
  1
1
  7
ROMANS
100
AcDbAttributeDefinition
  3

  2
BLADAANTAL
 70
     9
  0
ENDBLK
  5
1BA
100
AcDbEntity
  8
0
100
AcDbBlockEnd
  0
BLOCK
  5
98A
100
AcDbEntity
  8
0
100
AcDbBlockBegin
  2
A$C7A7B4A19
 70
     0
 10
0.0
 20
0.0
 30
0.0
  3
A$C7A7B4A19
  1

  0
LINE
  5
988
100
AcDbEntity
  8
VHH-050
100
AcDbLine
 10
0.000002
 20
17.677669
 30
0.0
 11
35.355341
 21
17.677669
 31
0.0
  0
LINE
  5
989
100
AcDbEntity
  8
VHH-050
100
AcDbLine
 10
17.677671
 20
-0.000001
 30
0.0
 11
17.677671
 21
35.355338
 31
0.0
  0
ENDBLK
  5
98B
100
AcDbEntity
  8
0
100
AcDbBlockEnd
  0
BLOCK
  5
98F
100
AcDbEntity
  8
0
100
AcDbBlockBegin
  2
A$C605007EB
 70
     0
 10
0.0
 20
0.0
 30
0.0
  3
A$C605007EB
  1

  0
LINE
  5
98D
100
AcDbEntity
  8
VHH-050
100
AcDbLine
 10
0.000002
 20
25.000002
 30
0.0
 11
25.000002
 21
0.000002
 31
0.0
  0
LINE
  5
98E
100
AcDbEntity
  8
VHH-050
100
AcDbLine
 10
0.000002
 20
0.000002
 30
0.0
 11
25.000002
 21
25.000002
 31
0.0
  0
ENDBLK
  5
990
100
AcDbEntity
  8
0
100
AcDbBlockEnd
  0
BLOCK
  5
994
100
AcDbEntity
  8
0
100
AcDbBlockBegin
  2
A$C32063EEB
 70
     0
 10
0.0
 20
0.0
 30
0.0
  3
A$C32063EEB
  1

  0
CIRCLE
  5
992
100
AcDbEntity
  8
VHH-050
100
AcDbCircle
 10
8.838839
 20
8.838837
 30
0.0
 40
1.838835
  0
CIRCLE
  5
993
100
AcDbEntity
  8
VHH-050
100
AcDbCircle
 10
8.838839
 20
8.838837
 30
0.0
 40
8.838835
  0
ENDBLK
  5
995
100
AcDbEntity
  8
0
100
AcDbBlockEnd
  0
ENDSEC
  0
SECTION
  2
ENTITIES
  0
INSERT
  5
27C
100
AcDbEntity
  8
0
100
AcDbBlockReference
 66
     1
  2
TEK_INFO
 10
0.0
 20
0.0
 30
0.0
  0
ATTRIB
  5
27D
100
AcDbEntity
  8
0
100
AcDbText
 10
15.0
 20
31.5
 30
0.0
 40
2.5
  1
A3
  7
ROMANS
100
AcDbAttribute
  2
FORMAAT
 70
     9
  0
ATTRIB
  5
27E
100
AcDbEntity
  8
0
100
AcDbText
 10
15.0
 20
27.5
 30
0.0
 40
2.5
  1
hor
  7
ROMANS
100
AcDbAttribute
  2
POSITIE
 70
     9
  0
ATTRIB
  5
27F
100
AcDbEntity
  8
0
100
AcDbText
 10
15.0
 20
23.5
 30
0.0
 40
2.5
  1
1
  7
ROMANS
100
AcDbAttribute
  2
AANTAL
 70
     9
  0
ATTRIB
  5
280
100
AcDbEntity
  8
0
100
AcDbText
 10
15.0
 20
19.5
 30
0.0
 40
2.5
  1
1
  7
ROMANS
100
AcDbAttribute
  2
TEKSCHAAL
 70
     9
  0
ATTRIB
  5
281
100
AcDbEntity
  8
0
100
AcDbText
 10
15.0
 20
15.5
 30
0.0
 40
2.5
  1
1
  7
ROMANS
100
AcDbAttribute
  2
SNAPSCHAAL
 70
     9
  0
ATTRIB
  5
282
100
AcDbEntity
  8
0
100
AcDbText
 10
15.0
 20
11.5
 30
0.0
 40
2.5
  1
1
  7
ROMANS
100
AcDbAttribute
  2
BLADAANTAL
 70
     9
  0
SEQEND
  5
283
100
AcDbEntity
  8
0
  0
LINE
  5
10B2
100
AcDbEntity
  8
VHH-025
100
AcDbLine
 10
450.409974
 20
604.207869
 30
0.0
 11
452.689495
 21
523.0
 31
0.0
  0
LWPOLYLINE
  5
10B3
100
AcDbEntity
  8
VHH-025
100
AcDbPolyline
 90
        3
 70
     0
 43
0.0
 10
457.531941
 20
585.5
 10
455.2955
 20
585.5
 10
457.579072
 20
541.885357
  0
LINE
  5
10B4
100
AcDbEntity
  8
VHH-025
100
AcDbLine
 10
388.895016
 20
604.476283
 30
0.0
 11
388.895016
 21
558.396587
 31
0.0
  0
SPLINE
  5
10B5
100
AcDbEntity
  8
VHH-025
100
AcDbSpline
210
0.0
220
0.0
230
1.0
 70
    11
 71
     3
 72
    42
 73
    38
 74
     0
 42
0.0000001
 43
0.0000001
 40
0.0
 40
0.0
 40
0.0
 40
0.0
 40
0.2020226795177207
 40
0.2020226795177207
 40
0.6060680385531623
 40
0.6060680385531623
 40
1.010113397588603
 40
1.010113397588603
 40
1.414158756624045
 40
1.414158756624045
 40
1.774897046242743
 40
1.774897046242743
 40
2.130089007394168
 40
2.130089007394168
 40
2.471304605574108
 40
2.471304605574108
 40
2.812520203754048
 40
2.812520203754048
 40
3.071352036479815
 40
3.071352036479815
 40
3.330183869205582
 40
3.330183869205582
 40
3.713842095799154
 40
3.713842095799154
 40
4.097500322392726
 40
4.097500322392726
 40
4.481158548986298
 40
4.481158548986298
 40
4.86481677557987
 40
4.86481677557987
 40
5.248475002173442
 40
5.248475002173442
 40
5.632133228767014
 40
5.632133228767014
 40
6.015791455360586
 40
6.015791455360586
 40
6.283185307179586
 40
6.283185307179586
 40
6.283185307179586
 40
6.283185307179586
 10
364.6417372985151
 20
576.5515412051122
 30
0.0
 10
364.6417372985151
 20
576.1265904103543
 30
0.0
 10
364.6957473842421
 20
575.701341741103
 30
0.0
 10
365.0148404388755
 20
574.4540960623358
 30
0.0
 10
365.4403455614165
 20
573.6609261076178
 30
0.0
 10
366.6369303582641
 20
572.2790038834659
 30
0.0
 10
367.409343567614
 20
571.6898772556755
 30
0.0
 10
369.1732543184162
 20
570.8036900307948
 30
0.0
 10
370.1659458622334
 20
570.5063473105133
 30
0.0
 10
372.1050535444273
 20
570.2614637977726
 30
0.0
 10
373.0457168029597
 20
570.2794103879955
 30
0.0
 10
374.8458676744494
 20
570.5772000669981
 30
0.0
 10
375.7068170702195
 20
570.85388523575
 30
0.0
 10
377.2288653079204
 20
571.6154870706055
 30
0.0
 10
377.8958705873983
 20
572.0932424144144
 30
0.0
 10
378.997263175569
 20
573.2038874728236
 30
0.0
 10
379.429722456759
 20
573.838068796796
 30
0.0
 10
379.938157220834
 20
575.0281355356796
 30
0.0
 10
380.0744919518301
 20
575.5651042954264
 30
0.0
 10
380.1691542153866
 20
576.6515718385585
 30
0.0
 10
380.1289633383648
 20
577.2005818626207
 30
0.0
 10
379.8134480139897
 20
578.5259645525425
 30
0.0
 10
379.4319852940361
 20
579.2857013669667
 30
0.0
 10
378.3510075683871
 20
580.6293372304767
 30
0.0
 10
377.6496125266648
 20
581.2131430493923
 30
0.0
 10
376.0326434648441
 20
582.1273077638202
 30
0.0
 10
375.1157818866913
 20
582.4565872070275
 30
0.0
 10
373.1977006204479
 20
582.8183942672362
 30
0.0
 10
372.1959430978686
 20
582.8493936915697
 30
0.0
 10
370.2488350922403
 20
582.6106613931474
 30
0.0
 10
369.3037233650911
 20
582.3392525337908
 30
0.0
 10
367.6034179841508
 20
581.5317625395241
 30
0.0
 10
366.8491279492909
 20
580.9939434962238
 30
0.0
 10
365.6405732937392
 20
579.7259033370132
 30
0.0
 10
365.1881588358637
 20
578.9936092189341
 30
0.0
 10
364.7362725019056
 20
577.6767025127705
 30
0.0
 10
364.6417372985151
 20
577.1139989950747
 30
0.0
 10
364.6417372985151
 20
576.5515412051122
 30
0.0
  0
LINE
  5
10B6
100
AcDbEntity
  8
VHH-025
100
AcDbLine
 10
347.517269
 20
576.107147
 30
0.0
 11
346.98863
 21
573.463956
 31
0.0
  0
LINE
  5
10B7
100
AcDbEntity
  8
VHH-025
100
AcDbLine
 10
353.717269
 20
576.107147
 30
0.0
 11
353.18863
 21
573.463956
 31
0.0
  0
LINE
  5
10B8
100
AcDbEntity
  8
VHH-025
100
AcDbLine
 10
356.463619
 20
573.408215
 30
0.0
 11
356.991735
 21
576.048792
 31
0.0
  0
LINE
  5
10B9
100
AcDbEntity
  8
VHH-025
100
AcDbLine
 10
350.263619
 20
573.408215
 30
0.0
 11
350.791735
 21
576.048792
 31
0.0
  0
LINE
  5
10BA
100
AcDbEntity
  8
VHH-025
100
AcDbLine
 10
359.641737
 20
571.551541
 30
0.0
 11
359.641737
 21
581.551541
 31
0.0
  0
LINE
  5
10BB
100
AcDbEntity
  8
VHH-025
100
AcDbLine
 10
375.491737
 20
576.001541
 30
0.0
 11
375.491737
 21
574.701541
 31
0.0
  0
LINE
  5
10BC
100
AcDbEntity
  8
VHH-025
100
AcDbLine
 10
373.741737
 20
579.351541
 30
0.0
 11
370.541737
 21
573.751541
 31
0.0
  0
LINE
  5
10BD
100
AcDbEntity
  8
VHH-025
100
AcDbLine
 10
373.791737
 20
576.001541
 30
0.0
 11
373.791737
 21
574.701541
 31
0.0
  0
LINE
  5
10BE
100
AcDbEntity
  8
VHH-025
100
AcDbLine
 10
392.395016
 20
610.719456
 30
0.0
 11
392.395016
 21
543.217767
 31
0.0
  0
LINE
  5
10BF
100
AcDbEntity
  8
VHH-025
100
AcDbLine
 10
315.892825
 20
604.476283
 30
0.0
 11
315.892825
 21
558.396587
 31
0.0
  0
SPLINE
  5
10C0
100
AcDbEntity
  8
VHH-025
100
AcDbSpline
210
0.0
220
0.0
230
1.0
 70
    11
 71
     3
 72
    42
 73
    38
 74
     0
 42
0.0000001
 43
0.0000001
 40
0.0
 40
0.0
 40
0.0
 40
0.0
 40
0.2020226795172709
 40
0.2020226795172709
 40
0.6060680385518129
 40
0.6060680385518129
 40
1.010113397586354
 40
1.010113397586354
 40
1.414158756620896
 40
1.414158756620896
 40
1.774897046269892
 40
1.774897046269892
 40
2.130089007588556
 40
2.130089007588556
 40
2.471304605639319
 40
2.471304605639319
 40
2.812520203690082
 40
2.812520203690082
 40
3.071352036382359
 40
3.071352036382359
 40
3.330183869074637
 40
3.330183869074637
 40
3.713842095834065
 40
3.713842095834065
 40
4.097500322593494
 40
4.097500322593494
 40
4.481158549352922
 40
4.481158549352922
 40
4.864816776112351
 40
4.864816776112351
 40
5.24847500287178
 40
5.24847500287178
 40
5.632133229631208
 40
5.632133229631208
 40
6.015791456390637
 40
6.015791456390637
 40
6.283185307179586
 40
6.283185307179586
 40
6.283185307179586
 40
6.283185307179586
 10
324.6417372985151
 20
576.5515412051122
 30
0.0
 10
324.6417372985151
 20
576.1265904103551
 30
0.0
 10
324.6957473842421
 20
575.7013417411058
 30
0.0
 10
325.0148404388737
 20
574.4540960623412
 30
0.0
 10
325.4403455614128
 20
573.6609261076242
 30
0.0
 10
326.636930358255
 20
572.2790038834732
 30
0.0
 10
327.4093435676031
 20
571.6898772556828
 30
0.0
 10
329.173254318398
 20
570.8036900308011
 30
0.0
 10
330.1659458622134
 20
570.5063473105187
 30
0.0
 10
332.1050535444801
 20
570.2614637977635
 30
0.0
 10
333.0457168030943
 20
570.2794103879964
 30
0.0
 10
334.8458676750697
 20
570.5772000671209
 30
0.0
 10
335.7068170712218
 20
570.8538852360829
 30
0.0
 10
337.2288653088226
 20
571.6154870712184
 30
0.0
 10
337.8958705879658
 20
572.0932424149136
 30
0.0
 10
338.9972631756309
 20
573.2038874729609
 30
0.0
 10
339.4297224566516
 20
573.8380687966859
 30
0.0
 10
339.9381572206848
 20
575.0281355352203
 30
0.0
 10
340.0744919517173
 20
575.565104294888
 30
0.0
 10
340.1691542153921
 20
576.6515718378709
 30
0.0
 10
340.1289633384521
 20
577.200581861865
 30
0.0
 10
339.8134480142316
 20
578.5259645520977
 30
0.0
 10
339.4319852941525
 20
579.2857013668758
 30
0.0
 10
338.351007567976
 20
580.6293372309351
 30
0.0
 10
337.6496125258572
 20
581.2131430500453
 30
0.0
 10
336.0326434631142
 20
582.1273077646033
 30
0.0
 10
335.1157818844376
 20
582.4565872077505
 30
0.0
 10
333.1977006172046
 20
582.81839426755
 30
0.0
 10
332.1959430941578
 20
582.8493936915406
 30
0.0
 10
330.2488350878456
 20
582.6106613921824
 30
0.0
 10
329.3037233604709
 20
582.3392525322401
 30
0.0
 10
327.6034179794869
 20
581.5317625366656
 30
0.0
 10
326.8491279447944
 20
580.9939434926441
 30
0.0
 10
325.6405732900702
 20
579.7259033320247
 30
0.0
 10
325.1881588328369
 20
578.9936092132506
 30
0.0
 10
324.7362725011707
 20
577.6767025084431
 30
0.0
 10
324.6417372985133
 20
577.1139989929083
 30
0.0
 10
324.6417372985151
 20
576.5515412051122
 30
0.0
  0
LINE
  5
10C1
100
AcDbEntity
  8
VHH-025
100
AcDbLine
 10
345.141737
 20
571.551541
 30
0.0
 11
345.141737
 21
581.551541
 31
0.0
  0
LINE
  5
10C2
100
AcDbEntity
  8
VHH-025
100
AcDbLine
 10
332.214961
 20
573.374765
 30
0.0
 11
329.214961
 21
576.374765
 31
0.0
  0
LINE
  5
10C3
100
AcDbEntity
  8
VHH-025
100
AcDbLine
 10
332.568514
 20
573.374765
 30
0.0
 11
335.568514
 21
576.374765
 31
0.0
  0
LINE
  5
10C4
100
AcDbEntity
  8
VHH-025
100
AcDbLine
 10
274.530323
 20
571.643345
 30
0.0
 11
274.573197
 21
585.247496
 31
0.0
  0
LINE
  5
10C5
100
AcDbEntity
  8
VHH-025
100
AcDbLine
 10
273.964391
 20
557.454525
 30
0.0
 11
275.019995
 21
583.920205
 31
0.0
  0
LINE
  5
10C6
100
AcDbEntity
  8
VHH-025
100
AcDbLine
 10
272.636426
 20
553.141991
 30
0.0
 11
272.603369
 21
586.038518
 31
0.0
  0
LINE
  5
10C7
100
AcDbEntity
  8
VHH-025
100
AcDbLine
 10
297.607056
 20
587.205642
 30
0.0
 11
297.58606
 21
554.53208
 31
0.0
  0
LINE
  5
10C8
100
AcDbEntity
  8
VHH-025
100
AcDbLine
 10
298.305976
 20
587.24451
 30
0.0
 11
298.281929
 21
554.456147
 31
0.0
  0
LINE
  5
10C9
100
AcDbEntity
  8
VHH-025
100
AcDbLine
 10
288.978918
 20
584.813646
 30
0.0
 11
287.925069
 21
558.017127
 31
0.0
  0
LINE
  5
10CA
100
AcDbEntity
  8
VHH-025
100
AcDbLine
 10
289.74064
 20
585.941054
 30
0.0
 11
289.601686
 21
554.630639
 31
0.0
  0
LINE
  5
10CB
100
AcDbEntity
  8
VHH-025
100
AcDbLine
 10
291.685992
 20
587.846433
 30
0.0
 11
291.663729
 21
553.200051
 31
0.0
  0
LINE
  5
10CC
100
AcDbEntity
  8
VHH-025
100
AcDbLine
 10
254.377867
 20
604.207869
 30
0.0
 11
252.098346
 21
523.0
 31
0.0
  0
LINE
  5
10CD
100
AcDbEntity
  8
VHH-025
100
AcDbLine
 10
220.409975
 20
604.207869
 30
0.0
 11
222.689497
 21
523.0
 31
0.0
  0
LWPOLYLINE
  5
10CE
100
AcDbEntity
  8
VHH-025
100
AcDbPolyline
 90
        3
 70
     0
 43
0.0
 10
247.2559
 20
585.5
 10
249.492341
 20
585.5
 10
247.208769
 20
541.885357
  0
LWPOLYLINE
  5
10CF
100
AcDbEntity
  8
VHH-025
100
AcDbPolyline
 90
        3
 70
     0
 43
0.0
 10
227.531943
 20
585.5
 10
225.295501
 20
585.5
 10
227.579073
 20
541.885357
  0
LINE
  5
10D0
100
AcDbEntity
  8
VHH-025
100
AcDbLine
 10
312.392825
 20
610.719456
 30
0.0
 11
312.392825
 21
543.217767
 31
0.0
  0
LINE
  5
10D1
100
AcDbEntity
  8
VHH-025
100
AcDbLine
 10
158.895017
 20
604.476283
 30
0.0
 11
158.895017
 21
558.396587
 31
0.0
  0
LINE
  5
10D2
100
AcDbEntity
  8
VHH-025
100
AcDbLine
 10
85.892826
 20
604.476283
 30
0.0
 11
85.892826
 21
558.396587
 31
0.0
  0
SPLINE
  5
10D3
100
AcDbEntity
  8
VHH-025
100
AcDbSpline
210
0.0
220
0.0
230
1.0
 70
    11
 71
     3
 72
    42
 73
    38
 74
     0
 42
0.0000001
 43
0.0000001
 40
0.0
 40
0.0
 40
0.0
 40
0.0
 40
0.2020226795172709
 40
0.2020226795172709
 40
0.6060680385518129
 40
0.6060680385518129
 40
1.010113397586354
 40
1.010113397586354
 40
1.414158756620896
 40
1.414158756620896
 40
1.774897046269892
 40
1.774897046269892
 40
2.130089007588556
 40
2.130089007588556
 40
2.471304605639319
 40
2.471304605639319
 40
2.812520203690082
 40
2.812520203690082
 40
3.071352036382359
 40
3.071352036382359
 40
3.330183869074637
 40
3.330183869074637
 40
3.713842095834065
 40
3.713842095834065
 40
4.097500322593494
 40
4.097500322593494
 40
4.481158549352922
 40
4.481158549352922
 40
4.864816776112351
 40
4.864816776112351
 40
5.24847500287178
 40
5.24847500287178
 40
5.632133229631208
 40
5.632133229631208
 40
6.015791456390637
 40
6.015791456390637
 40
6.283185307179586
 40
6.283185307179586
 40
6.283185307179586
 40
6.283185307179586
 10
94.64173842812305
 20
576.5515412051127
 30
0.0
 10
94.64173842812305
 20
576.1265904103557
 30
0.0
 10
94.69574851384823
 20
575.7013417411058
 30
0.0
 10
95.01484156848164
 20
574.4540960623417
 30
0.0
 10
95.44034669101893
 20
573.6609261076246
 30
0.0
 10
96.63693148786297
 20
572.2790038834737
 30
0.0
 10
97.40934469721105
 20
571.6898772556833
 30
0.0
 10
99.17325544800405
 20
570.8036900308015
 30
0.0
 10
100.1659469918195
 20
570.5063473105192
 30
0.0
 10
102.105054674088
 20
570.261463797764
 30
0.0
 10
103.0457179327022
 20
570.2794103879969
 30
0.0
 10
104.8458688046775
 20
570.5772000671209
 30
0.0
 10
105.7068182008297
 20
570.8538852360829
 30
0.0
 10
107.2288664384304
 20
571.6154870712188
 30
0.0
 10
107.8958717175737
 20
572.0932424149136
 30
0.0
 10
108.9972643052387
 20
573.2038874729615
 30
0.0
 10
109.4297235862595
 20
573.8380687966865
 30
0.0
 10
109.9381583502909
 20
575.0281355352208
 30
0.0
 10
110.0744930813252
 20
575.5651042948884
 30
0.0
 10
110.169155345
 20
576.6515718378709
 30
0.0
 10
110.12896446806
 20
577.200581861865
 30
0.0
 10
109.8134491438395
 20
578.5259645520977
 30
0.0
 10
109.4319864237586
 20
579.2857013668763
 30
0.0
 10
108.3510086975838
 20
580.6293372309355
 30
0.0
 10
107.6496136554651
 20
581.2131430500453
 30
0.0
 10
106.0326445927203
 20
582.1273077646033
 30
0.0
 10
105.1157830140436
 20
582.456587207751
 30
0.0
 10
103.1977017468125
 20
582.8183942675504
 30
0.0
 10
102.1959442237639
 20
582.849393691541
 30
0.0
 10
100.2488362174517
 20
582.6106613921829
 30
0.0
 10
99.303724490077
 20
582.3392525322406
 30
0.0
 10
97.60341910909483
 20
581.5317625366656
 30
0.0
 10
96.8491290744023
 20
580.9939434926445
 30
0.0
 10
95.64057441967817
 20
579.7259033320247
 30
0.0
 10
95.18815996244484
 20
578.9936092132511
 30
0.0
 10
94.73627363077685
 20
577.6767025084437
 30
0.0
 10
94.64173842812124
 20
577.1139989929083
 30
0.0
 10
94.64173842812305
 20
576.5515412051127
 30
0.0
  0
LINE
  5
10D4
100
AcDbEntity
  8
VHH-025
100
AcDbLine
 10
102.568515
 20
573.374765
 30
0.0
 11
105.568515
 21
576.374765
 31
0.0
  0
LINE
  5
10D5
100
AcDbEntity
  8
VHH-025
100
AcDbLine
 10
102.214962
 20
573.374765
 30
0.0
 11
99.214962
 21
576.374765
 31
0.0
  0
LINE
  5
10D6
100
AcDbEntity
  8
VHH-025
100
AcDbLine
 10
126.46362
 20
573.408215
 30
0.0
 11
126.991736
 21
576.048792
 31
0.0
  0
LINE
  5
10D7
100
AcDbEntity
  8
VHH-025
100
AcDbLine
 10
123.71727
 20
576.107147
 30
0.0
 11
123.188631
 21
573.463956
 31
0.0
  0
LINE
  5
10D8
100
AcDbEntity
  8
VHH-025
100
AcDbLine
 10
120.26362
 20
573.408215
 30
0.0
 11
120.791736
 21
576.048792
 31
0.0
  0
LINE
  5
10D9
100
AcDbEntity
  8
VHH-025
100
AcDbLine
 10
115.141738
 20
571.551541
 30
0.0
 11
115.141738
 21
581.551541
 31
0.0
  0
LINE
  5
10DA
100
AcDbEntity
  8
VHH-025
100
AcDbLine
 10
117.51727
 20
576.107147
 30
0.0
 11
116.988631
 21
573.463956
 31
0.0
  0
LINE
  5
10DB
100
AcDbEntity
  8
VHH-025
100
AcDbLine
 10
145.491738
 20
576.001541
 30
0.0
 11
145.491738
 21
574.701541
 31
0.0
  0
LINE
  5
10DC
100
AcDbEntity
  8
VHH-025
100
AcDbLine
 10
143.741738
 20
579.351541
 30
0.0
 11
140.541738
 21
573.751541
 31
0.0
  0
LINE
  5
10DD
100
AcDbEntity
  8
VHH-025
100
AcDbLine
 10
129.641738
 20
571.551541
 30
0.0
 11
129.641738
 21
581.551541
 31
0.0
  0
LINE
  5
10DE
100
AcDbEntity
  8
VHH-025
100
AcDbLine
 10
143.791738
 20
576.001541
 30
0.0
 11
143.791738
 21
574.701541
 31
0.0
  0
SPLINE
  5
10DF
100
AcDbEntity
  8
VHH-025
100
AcDbSpline
210
0.0
220
0.0
230
1.0
 70
    11
 71
     3
 72
    42
 73
    38
 74
     0
 42
0.0000001
 43
0.0000001
 40
0.0
 40
0.0
 40
0.0
 40
0.0
 40
0.2020226795177207
 40
0.2020226795177207
 40
0.6060680385531623
 40
0.6060680385531623
 40
1.010113397588603
 40
1.010113397588603
 40
1.414158756624045
 40
1.414158756624045
 40
1.774897046242743
 40
1.774897046242743
 40
2.130089007394168
 40
2.130089007394168
 40
2.471304605574108
 40
2.471304605574108
 40
2.812520203754048
 40
2.812520203754048
 40
3.071352036479815
 40
3.071352036479815
 40
3.330183869205582
 40
3.330183869205582
 40
3.713842095799154
 40
3.713842095799154
 40
4.097500322392726
 40
4.097500322392726
 40
4.481158548986298
 40
4.481158548986298
 40
4.86481677557987
 40
4.86481677557987
 40
5.248475002173442
 40
5.248475002173442
 40
5.632133228767014
 40
5.632133228767014
 40
6.015791455360586
 40
6.015791455360586
 40
6.283185307179586
 40
6.283185307179586
 40
6.283185307179586
 40
6.283185307179586
 10
134.641738428123
 20
576.5515412051122
 30
0.0
 10
134.641738428123
 20
576.1265904103543
 30
0.0
 10
134.6957485138482
 20
575.701341741103
 30
0.0
 10
135.0148415684834
 20
574.4540960623362
 30
0.0
 10
135.4403466910225
 20
573.6609261076182
 30
0.0
 10
136.636931487872
 20
572.2790038834659
 30
0.0
 10
137.4093446972219
 20
571.6898772556755
 30
0.0
 10
139.1732554480222
 20
570.8036900307948
 30
0.0
 10
140.1659469918413
 20
570.5063473105138
 30
0.0
 10
142.1050546740352
 20
570.261463797773
 30
0.0
 10
143.0457179325676
 20
570.2794103879959
 30
0.0
 10
144.8458688040554
 20
570.5772000669985
 30
0.0
 10
145.7068181998274
 20
570.8538852357505
 30
0.0
 10
147.2288664375264
 20
571.6154870706059
 30
0.0
 10
147.8958717170062
 20
572.0932424144148
 30
0.0
 10
148.9972643051769
 20
573.2038874728241
 30
0.0
 10
149.4297235863669
 20
573.838068796796
 30
0.0
 10
149.9381583504418
 20
575.0281355356801
 30
0.0
 10
150.074493081438
 20
575.5651042954268
 30
0.0
 10
150.1691553449927
 20
576.6515718385585
 30
0.0
 10
150.1289644679709
 20
577.2005818626212
 30
0.0
 10
149.8134491435958
 20
578.5259645525429
 30
0.0
 10
149.431986423644
 20
579.2857013669667
 30
0.0
 10
148.3510086979949
 20
580.6293372304772
 30
0.0
 10
147.6496136562727
 20
581.2131430493927
 30
0.0
 10
146.0326445944519
 20
582.1273077638202
 30
0.0
 10
145.1157830162992
 20
582.4565872070275
 30
0.0
 10
143.1977017500557
 20
582.8183942672366
 30
0.0
 10
142.1959442274765
 20
582.8493936915702
 30
0.0
 10
140.2488362218482
 20
582.6106613931474
 30
0.0
 10
139.303724494699
 20
582.3392525337912
 30
0.0
 10
137.6034191137587
 20
581.5317625395241
 30
0.0
 10
136.8491290788988
 20
580.9939434962243
 30
0.0
 10
135.640574423347
 20
579.7259033370137
 30
0.0
 10
135.1881599654716
 20
578.9936092189345
 30
0.0
 10
134.7362736315117
 20
577.676702512771
 30
0.0
 10
134.641738428123
 20
577.1139989950752
 30
0.0
 10
134.641738428123
 20
576.5515412051122
 30
0.0
  0
LINE
  5
10E0
100
AcDbEntity
  8
VHH-025
100
AcDbLine
 10
24.377869
 20
604.207869
 30
0.0
 11
22.098347
 21
523.0
 31
0.0
  0
LINE
  5
10E1
100
AcDbEntity
  8
VHH-025
100
AcDbLine
 10
61.685993
 20
587.846433
 30
0.0
 11
61.66373
 21
553.200051
 31
0.0
  0
LINE
  5
10E2
100
AcDbEntity
  8
VHH-025
100
AcDbLine
 10
67.607057
 20
587.205642
 30
0.0
 11
67.586061
 21
554.53208
 31
0.0
  0
LINE
  5
10E3
100
AcDbEntity
  8
VHH-025
100
AcDbLine
 10
68.305977
 20
587.24451
 30
0.0
 11
68.28193
 21
554.456147
 31
0.0
  0
LWPOLYLINE
  5
10E4
100
AcDbEntity
  8
VHH-025
100
AcDbPolyline
 90
        3
 70
     0
 43
0.0
 10
17.255901
 20
585.5
 10
19.492342
 20
585.5
 10
17.20877
 20
541.885357
  0
LINE
  5
10E5
100
AcDbEntity
  8
VHH-025
100
AcDbLine
 10
42.636427
 20
553.141991
 30
0.0
 11
42.60337
 21
586.038518
 31
0.0
  0
LINE
  5
10E6
100
AcDbEntity
  8
VHH-025
100
AcDbLine
 10
58.97892
 20
584.813646
 30
0.0
 11
57.92507
 21
558.017127
 31
0.0
  0
LINE
  5
10E7
100
AcDbEntity
  8
VHH-025
100
AcDbLine
 10
59.740641
 20
585.941054
 30
0.0
 11
59.601687
 21
554.630639
 31
0.0
  0
LINE
  5
10E8
100
AcDbEntity
  8
VHH-025
100
AcDbLine
 10
44.530324
 20
571.643345
 30
0.0
 11
44.573198
 21
585.247496
 31
0.0
  0
LINE
  5
10E9
100
AcDbEntity
  8
VHH-025
100
AcDbLine
 10
43.964393
 20
557.454525
 30
0.0
 11
45.019996
 21
583.920205
 31
0.0
  0
LINE
  5
10EA
100
AcDbEntity
  8
VHH-025
100
AcDbLine
 10
162.395017
 20
610.719456
 30
0.0
 11
162.395017
 21
543.217767
 31
0.0
  0
LINE
  5
10EB
100
AcDbEntity
  8
VHH-025
100
AcDbLine
 10
82.392826
 20
610.719456
 30
0.0
 11
82.392826
 21
543.217767
 31
0.0
  0
LINE
  5
10EF
100
AcDbEntity
  8
VHH-025
100
AcDbLine
 10
7.390652
 20
585.5
 30
0.0
 11
7.390652
 21
57.5
 31
0.0
  0
LINE
  5
10F0
100
AcDbEntity
  8
VHH-025
100
AcDbLine
 10
467.390649
 20
585.5
 30
0.0
 11
467.390649
 21
57.5
 31
0.0
  0
LINE
  5
10F1
100
AcDbEntity
  8
VHH-025
100
AcDbLine
 10
237.390651
 20
57.5
 30
0.0
 11
237.390651
 21
585.5
 31
0.0
  0
LINE
  5
10F2
100
AcDbEntity
  8
VHH-025
100
AcDbLine
 10
237.390651
 20
585.5
 30
0.0
 11
237.390651
 21
57.5
 31
0.0
  0
INSERT
  5
10F4
100
AcDbEntity
  8
VHH-050
100
AcDbBlockReference
  2
A$C32063EEB
 10
-8.838839
 20
-8.838837
 30
0.0
  0
LINE
  5
11B3
100
AcDbEntity
  8
VHH-025
100
AcDbLine
 10
458.463693
 20
367.881387
 30
0.0
 11
458.492825
 21
86.779748
 31
0.0
  0
LINE
  5
11B4
100
AcDbEntity
  8
VHH-025
100
AcDbLine
 10
16.292826
 20
86.777314
 30
0.0
 11
16.292826
 21
367.849173
 31
0.0
  0
LINE
  5
11B5
100
AcDbEntity
  8
VHH-025
100
AcDbLine
 10
246.321957
 20
367.881387
 30
0.0
 11
246.292825
 21
86.779748
 31
0.0
  0
LINE
  5
11B6
100
AcDbEntity
  8
VHH-025
100
AcDbLine
 10
228.499919
 20
86.777314
 30
0.0
 11
228.499919
 21
367.849173
 31
0.0
  0
SPLINE
  5
11B7
100
AcDbEntity
  8
VHH-025
100
AcDbSpline
210
0.0
220
0.0
230
-1.0
 70
     8
 71
     3
 72
    21
 73
    17
 74
    15
 42
0.0000001
 43
0.0000001
 44
0.0000000001
 40
0.0
 40
0.0
 40
0.0
 40
0.0
 40
20.54239158430199
 40
61.59039768144527
 40
82.07172333944729
 40
125.296585761799
 40
169.1286553754403
 40
184.7551054222654
 40
220.133530368094
 40
256.6699875994246
 40
282.1667103634477
 40
297.6736575699721
 40
311.1983593231731
 40
319.2874834073427
 40
322.6453315890994
 40
326.0031797708561
 40
326.0031797708561
 40
326.0031797708561
 40
326.0031797708561
 10
222.5339474817356
 20
386.0016124384087
 30
0.0
 10
222.5332649174053
 20
379.154148614912
 30
0.0
 10
222.5312184464106
 20
358.6240161681744
 30
0.0
 10
222.5292785154911
 20
331.2667749886049
 30
0.0
 10
222.5330914510033
 20
296.3487103902131
 30
0.0
 10
222.5406881010463
 20
260.5026253076815
 30
0.0
 10
222.5563565508871
 20
226.2748336879517
 30
0.0
 10
222.581187445429
 20
194.6625289115609
 30
0.0
 10
222.612128153269
 20
165.4820971640196
 30
0.0
 10
222.6683644237912
 20
133.0116182822627
 30
0.0
 10
222.7262917411923
 20
107.164949842838
 30
0.0
 10
222.705490616878
 20
88.98880949726564
 30
0.0
 10
222.7412024374993
 20
76.61524844808503
 30
0.0
 10
222.7396137926293
 20
68.29135349958886
 30
0.0
 10
222.7408684885612
 20
63.3564137605442
 30
0.0
 10
222.7412914981899
 20
61.117848322469
 30
0.0
 10
222.7415030030042
 20
59.99856560343141
 30
0.0
 11
222.5339474817356
 21
386.0016124384087
 31
0.0
 11
222.5319654957638
 21
365.4592209497204
 31
0.0
 11
222.5304364226885
 21
324.4112148810568
 31
0.0
 11
222.5324890874544
 21
303.9298893259151
 31
0.0
 11
222.5424039614517
 21
260.7050280406951
 31
0.0
 11
222.5641901690032
 21
216.8729638413415
 31
0.0
 11
222.5764544423
 21
201.2465186072672
 31
0.0
 11
222.6156150771493
 21
165.8681153350405
 31
0.0
 11
222.6783907780518
 21
129.3317120332892
 31
0.0
 11
222.7158626255877
 21
103.8350168049642
 31
0.0
 11
222.7158626255877
 21
88.32806959843969
 31
0.0
 11
222.7377515375156
 21
74.80338555819049
 31
0.0
 11
222.7401609041571
 21
66.71426183283893
 31
0.0
 11
222.7408319535807
 21
63.35641371813517
 31
0.0
 11
222.7415030030042
 21
59.99856560343141
 31
0.0
  0
SPLINE
  5
11B8
100
AcDbEntity
  8
VHH-025
100
AcDbSpline
210
0.0
220
0.0
230
1.0
 70
     8
 71
     3
 72
    21
 73
    17
 74
    15
 42
0.0000001
 43
0.0000001
 44
0.0000000001
 40
0.0
 40
0.0
 40
0.0
 40
0.0
 40
20.54239158430199
 40
61.59039768144527
 40
82.07172333944729
 40
125.296585761799
 40
169.1286553754403
 40
184.7551054222654
 40
220.133530368094
 40
256.6699875994246
 40
282.1667103634477
 40
297.6736575699721
 40
311.1983593231731
 40
319.2874834073427
 40
322.6453315890994
 40
326.0031797708561
 40
326.0031797708561
 40
326.0031797708561
 40
326.0031797708561
 10
22.25879736856768
 20
386.0016124384087
 30
0.0
 10
22.25947993289786
 20
379.154148614912
 30
0.0
 10
22.26152640389255
 20
358.6240161681744
 30
0.0
 10
22.26346633481214
 20
331.2667749886049
 30
0.0
 10
22.25965339929993
 20
296.3487103902131
 30
0.0
 10
22.25205674925689
 20
260.5026253076815
 30
0.0
 10
22.23638829941609
 20
226.2748336879517
 30
0.0
 10
22.21155740487414
 20
194.6625289115609
 30
0.0
 10
22.18061669703419
 20
165.4820971640196
 30
0.0
 10
22.124380426512
 20
133.0116182822627
 30
0.0
 10
22.06645310911103
 20
107.164949842838
 30
0.0
 10
22.08725423342517
 20
88.98880949726564
 30
0.0
 10
22.05154241280391
 20
76.61524844808503
 30
0.0
 10
22.05313105767393
 20
68.29135349958886
 30
0.0
 10
22.05187636174204
 20
63.3564137605442
 30
0.0
 10
22.05145335211336
 20
61.117848322469
 30
0.0
 10
22.05124184729902
 20
59.99856560343141
 30
0.0
 11
22.25879736856768
 21
386.0016124384087
 31
0.0
 11
22.26077935453941
 21
365.4592209497204
 31
0.0
 11
22.2623084276147
 21
324.4112148810568
 31
0.0
 11
22.26025576284882
 21
303.9298893259151
 31
0.0
 11
22.25034088885149
 21
260.7050280406951
 31
0.0
 11
22.22855468130001
 21
216.8729638413415
 31
0.0
 11
22.21629040800326
 21
201.2465186072672
 31
0.0
 11
22.17712977315386
 21
165.8681153350405
 31
0.0
 11
22.11435407225144
 21
129.3317120332892
 31
0.0
 11
22.07688222471551
 21
103.8350168049642
 31
0.0
 11
22.07688222471551
 21
88.32806959843969
 31
0.0
 11
22.0549933127877
 21
74.80338555819049
 31
0.0
 11
22.05258394614611
 21
66.71426183283893
 31
0.0
 11
22.05191289672256
 21
63.35641371813517
 31
0.0
 11
22.05124184729902
 21
59.99856560343141
 31
0.0
  0
LINE
  5
11B9
100
AcDbEntity
  8
VHH-025
100
AcDbLine
 10
452.522917
 20
384.176077
 30
0.0
 11
452.73441
 21
59.998566
 31
0.0
  0
LINE
  5
11BA
100
AcDbEntity
  8
VHH-025
100
AcDbLine
 10
252.262733
 20
384.176077
 30
0.0
 11
252.050915
 21
59.5
 31
0.0
  0
LWPOLYLINE
  5
11BB
100
AcDbEntity
  8
VHH-025
100
AcDbPolyline
 90
        6
 70
     0
 43
0.0
 10
237.390651
 20
57.5
 10
468.388475
 20
57.5
 42
-0.414214
 10
469.388475
 20
56.5
 10
469.388475
 20
21.5
 42
-0.414214
 10
468.388475
 20
20.5
 10
467.226491
 20
20.5
  0
LINE
  5
11BC
100
AcDbEntity
  8
VHH-025
100
AcDbLine
 10
473.198172
 20
0.0
 30
0.0
 11
237.389563
 21
0.0
 31
0.0
  0
LINE
  5
11BD
100
AcDbEntity
  8
VHH-025
100
AcDbLine
 10
238.539385
 20
55.140004
 30
0.0
 11
352.389563
 21
55.140004
 31
0.0
  0
LINE
  5
11BE
100
AcDbEntity
  8
VHH-025
100
AcDbLine
 10
242.002856
 20
59.5
 30
0.0
 11
352.392825
 21
59.5
 31
0.0
  0
INSERT
  5
11BF
100
AcDbEntity
  8
VHH-050
100
AcDbBlockReference
  2
A$C7A7B4A19
 10
159.084613
 20
21.322331
 30
0.0
  0
LWPOLYLINE
  5
11C0
100
AcDbEntity
  8
VHH-025
100
AcDbPolyline
 90
        6
 70
     0
 43
0.0
 10
7.552635
 20
20.5
 10
6.390652
 20
20.5
 42
-0.414214
 10
5.390652
 20
21.5
 10
5.390652
 20
56.5
 42
-0.414214
 10
6.390652
 20
57.5
 10
237.390651
 20
57.5
  0
LINE
  5
11C1
100
AcDbEntity
  8
VHH-025
100
AcDbLine
 10
1.580954
 20
0.0
 30
0.0
 11
237.389564
 21
0.0
 31
0.0
  0
LINE
  5
11C2
100
AcDbEntity
  8
VHH-025
100
AcDbLine
 10
11.821171
 20
59.5
 30
0.0
 11
232.971574
 21
59.5
 31
0.0
  0
LINE
  5
11C3
100
AcDbEntity
  8
VHH-025
100
AcDbLine
 10
236.239742
 20
55.140004
 30
0.0
 11
122.389564
 21
55.140004
 31
0.0
  0
INSERT
  5
11C4
100
AcDbEntity
  8
VHH-050
100
AcDbBlockReference
  2
A$C605007EB
 10
109.863924
 20
7.429986
 30
0.0
  0
LINE
  5
11C5
100
AcDbEntity
  8
VHH-025
100
AcDbLine
 10
8.108643
 20
0.0
 30
0.0
 11
8.539386
 21
55.140004
 31
0.0
  0
LINE
  5
11C6
100
AcDbEntity
  8
VHH-025
100
AcDbLine
 10
7.389564
 20
0.0
 30
0.0
 11
7.839074
 21
56.508727
 31
0.0
  0
LINE
  5
11C7
100
AcDbEntity
  8
VHH-025
100
AcDbLine
 10
0.0
 20
1.0
 30
0.0
 11
1.722356
 21
39.559818
 31
0.0
  0
LINE
  5
11C8
100
AcDbEntity
  8
VHH-025
100
AcDbLine
 10
1.580954
 20
0.0
 30
0.0
 11
122.389564
 21
0.0
 31
0.0
  0
LINE
  5
11C9
100
AcDbEntity
  8
VHH-025
100
AcDbLine
 10
7.397519
 20
1.0
 30
0.0
 11
0.0
 21
1.0
 31
0.0
  0
LINE
  5
11CA
100
AcDbEntity
  8
VHH-025
100
AcDbLine
 10
1.580954
 20
0.0
 30
0.0
 11
1.580954
 21
1.0
 31
0.0
  0
LINE
  5
11CB
100
AcDbEntity
  8
VHH-025
100
AcDbLine
 10
8.539386
 20
55.140004
 30
0.0
 11
122.389564
 21
55.140004
 31
0.0
  0
SPLINE
  5
11CC
100
AcDbEntity
  8
VHH-025
100
AcDbSpline
210
0.0
220
0.0
230
1.0
 70
     8
 71
     3
 72
    12
 73
     8
 74
     6
 42
0.0000001
 43
0.0000001
 44
0.0000000001
 40
0.0
 40
0.0
 40
0.0
 40
0.0
 40
0.6338343735446307
 40
1.802514005420979
 40
3.392650738410737
 40
4.455110963274805
 40
5.521960543992556
 40
5.521960543992556
 40
5.521960543992556
 40
5.521960543992556
 10
13.93756090602619
 20
81.93126068645325
 30
0.0
 10
14.00293595225382
 20
82.13533140521894
 30
0.0
 10
14.18885113979934
 20
82.71567280673432
 30
0.0
 10
15.08642718901988
 20
83.46695482398738
 30
0.0
 10
15.8228793115877
 20
84.52051896117058
 30
0.0
 10
16.22532614827537
 20
85.71072089337041
 30
0.0
 10
16.27029530609947
 20
86.42129480595981
 30
0.0
 10
16.2928262346868
 20
86.77731415022231
 30
0.0
 11
13.93756090602619
 21
81.93126068645325
 31
0.0
 11
14.16966407984182
 21
82.52106923996143
 31
0.0
 11
14.93935815434997
 21
83.40049127381645
 31
0.0
 11
15.84400508318685
 21
84.70821783688279
 31
0.0
 11
16.17868620561421
 21
85.71658794537915
 31
0.0
 11
16.2928262346868
 21
86.77731415022231
 31
0.0
  0
CIRCLE
  5
11CD
100
AcDbEntity
  8
VHH-025
100
AcDbCircle
 10
47.392826
 20
77.5
 30
0.0
 40
11.0
  0
CIRCLE
  5
11CE
100
AcDbEntity
  8
VHH-025
100
AcDbCircle
 10
47.392826
 20
77.5
 30
0.0
 40
10.0
  0
LINE
  5
11CF
100
AcDbEntity
  8
VHH-025
100
AcDbLine
 10
3.066349
 20
40.5
 30
0.0
 11
5.390652
 21
40.5
 31
0.0
  0
ARC
  5
11D0
100
AcDbEntity
  8
VHH-025
100
AcDbCircle
 10
2.746228
 20
39.487588
 30
0.0
 40
1.026416
100
AcDbArc
 50
80.52442
 51
175.964714
  0
SPLINE
  5
11D1
100
AcDbEntity
  8
VHH-025
100
AcDbSpline
210
0.0
220
0.0
230
-1.0
 70
     8
 71
     3
 72
    11
 73
     7
 74
     5
 42
0.0000001
 43
0.0000001
 44
0.0000000001
 40
0.0
 40
0.0
 40
0.0
 40
0.0
 40
0.1804692599193307
 40
0.4428351455142432
 40
0.594256959256912
 40
0.8224153121621672
 40
0.8224153121621672
 40
0.8224153121621672
 40
0.8224153121621672
 10
11.32044196629431
 20
60.01097831338256
 30
0.0
 10
11.3154655248086
 20
59.95001506306219
 30
0.0
 10
11.30325434163838
 20
59.80042354903531
 30
0.0
 10
11.42534920010155
 20
59.61934792468968
 30
0.0
 10
11.61621256968851
 20
59.51472917137746
 30
0.0
 10
11.74422480611872
 20
59.5055296575774
 30
0.0
 10
11.82117050450324
 20
59.50000000639807
 30
0.0
 11
11.32044196629431
 21
60.01097831338256
 31
0.0
 11
11.32265149960403
 21
59.83052257992312
 31
0.0
 11
11.46342528670356
 21
59.60912113731342
 31
0.0
 11
11.59580905582151
 21
59.53561533243214
 31
0.0
 11
11.82117050450324
 21
59.50000000639807
 31
0.0
  0
ARC
  5
11D2
100
AcDbEntity
  8
VHH-025
100
AcDbCircle
 10
8.839036
 20
56.5
 30
0.0
 40
1.0
100
AcDbArc
 50
90.000004
 51
179.500001
  0
LINE
  5
11D3
100
AcDbEntity
  8
VHH-025
100
AcDbLine
 10
12.294521
 20
59.5
 30
0.0
 11
12.294521
 21
57.5
 31
0.0
  0
SPLINE
  5
11D4
100
AcDbEntity
  8
VHH-025
100
AcDbSpline
210
0.0
220
0.0
230
1.0
 70
     8
 71
     3
 72
    14
 73
    10
 74
     8
 42
0.0000001
 43
0.0000001
 44
0.0000000001
 40
0.0
 40
0.0
 40
0.0
 40
0.0
 40
7.363011525298877
 40
13.39023931792484
 40
17.17017577582414
 40
20.43494269983868
 40
23.34546059114097
 40
24.87763384394707
 40
25.34800183035996
 40
25.34800183035996
 40
25.34800183035996
 40
25.34800183035996
 10
18.20912635667082
 20
59.99973156385294
 30
0.0
 10
18.19773049082416
 20
62.45408281737756
 30
0.0
 10
18.177006175726
 20
66.91752152612102
 30
0.0
 10
18.11937747613912
 20
72.64027094157725
 30
0.0
 10
18.0195675980989
 20
76.99760117722431
 30
0.0
 10
17.8267865370709
 20
80.30917456318979
 30
0.0
 10
17.62889779676055
 20
82.87553779371204
 30
0.0
 10
17.27669477615376
 20
84.4799157985631
 30
0.0
 10
17.07571671350842
 20
85.11649849321988
 30
0.0
 10
17.02850987212696
 20
85.26602256513752
 30
0.0
 11
18.20912635667082
 21
59.99973156385294
 31
0.0
 11
18.16761613153721
 21
67.36262607775802
 31
0.0
 11
18.09598425564763
 21
73.38942819318868
 31
0.0
 11
17.9918447630971
 21
77.16792982635593
 31
0.0
 11
17.80903508666779
 21
80.42757454477897
 31
0.0
 11
17.50577505137334
 21
83.32225030323343
 31
0.0
 11
17.16696237309042
 21
84.81649286910055
 31
0.0
 11
17.02850987212696
 21
85.26602256513752
 31
0.0
  0
LINE
  5
11D5
100
AcDbEntity
  8
VHH-025
100
AcDbLine
 10
11.320442
 20
60.010978
 30
0.0
 11
13.937561
 21
81.931261
 31
0.0
  0
LINE
  5
11D6
100
AcDbEntity
  8
VHH-025
100
AcDbLine
 10
238.108642
 20
0.0
 30
0.0
 11
238.539385
 21
55.140004
 31
0.0
  0
LINE
  5
11D7
100
AcDbEntity
  8
VHH-025
100
AcDbLine
 10
237.389563
 20
0.0
 30
0.0
 11
237.839073
 21
56.508727
 31
0.0
  0
LINE
  5
11D8
100
AcDbEntity
  8
VHH-025
100
AcDbLine
 10
237.389564
 20
0.0
 30
0.0
 11
236.940054
 21
56.508727
 31
0.0
  0
LINE
  5
11D9
100
AcDbEntity
  8
VHH-025
100
AcDbLine
 10
236.670485
 20
0.0
 30
0.0
 11
236.239742
 21
55.140004
 31
0.0
  0
SPLINE
  5
11DA
100
AcDbEntity
  8
VHH-025
100
AcDbSpline
210
0.0
220
0.0
230
1.0
 70
     8
 71
     3
 72
    13
 73
     9
 74
     7
 42
0.0000001
 43
0.0000001
 44
0.0000000001
 40
0.0
 40
0.0
 40
0.0
 40
0.0
 40
1.069269359765536
 40
2.131729584630608
 40
3.197797541177999
 40
4.26217533894207
 40
4.899079804344114
 40
5.532914177888079
 40
5.532914177888079
 40
5.532914177888079
 40
5.532914177888079
 10
246.2928251050789
 20
86.77974786632104
 30
0.0
 10
246.2708806044358
 20
86.42241739781558
 30
0.0
 10
246.2271313462965
 20
85.71003195045745
 30
0.0
 10
245.8734885933163
 20
84.69404124085331
 30
0.0
 10
245.3404693262113
 20
83.75805533196203
 30
0.0
 10
244.6770889677839
 20
83.11816281433081
 30
0.0
 10
244.1269111540081
 20
82.54691720436287
 30
0.0
 10
244.0005751601324
 20
82.13614872162454
 30
0.0
 10
243.9375597764201
 20
81.93126068645279
 30
0.0
 11
246.2928251050789
 21
86.77974786632104
 31
0.0
 11
246.1786850760081
 21
85.71658794537915
 31
0.0
 11
245.8440039535789
 21
84.70821783688235
 31
0.0
 11
245.3013631423682
 21
83.79058946004034
 31
0.0
 11
244.5773509071177
 21
83.01039308759255
 31
0.0
 11
244.1696629502339
 21
82.52106923996098
 31
0.0
 11
243.9375597764201
 21
81.93126068645279
 31
0.0
  0
SPLINE
  5
11DB
100
AcDbEntity
  8
VHH-025
100
AcDbSpline
210
0.0
220
0.0
230
-1.0
 70
     8
 71
     3
 72
    12
 73
     8
 74
     6
 42
0.0000001
 43
0.0000001
 44
0.0000000001
 40
0.0
 40
0.0
 40
0.0
 40
0.0
 40
0.6338343735446307
 40
1.802514005420979
 40
3.392650738410737
 40
4.455110963274805
 40
5.521960543992556
 40
5.521960543992556
 40
5.521960543992556
 40
5.521960543992556
 10
230.855183944277
 20
81.93126068645325
 30
0.0
 10
230.7898088980494
 20
82.13533140521894
 30
0.0
 10
230.6038937105039
 20
82.71567280673432
 30
0.0
 10
229.7063176612833
 20
83.46695482398738
 30
0.0
 10
228.9698655387155
 20
84.52051896117058
 30
0.0
 10
228.5674187020279
 20
85.71072089337041
 30
0.0
 10
228.5224495442037
 20
86.42129480595981
 30
0.0
 10
228.4999186156164
 20
86.77731415022231
 30
0.0
 11
230.855183944277
 21
81.93126068645325
 31
0.0
 11
230.6230807704614
 21
82.52106923996143
 31
0.0
 11
229.8533866959532
 21
83.40049127381645
 31
0.0
 11
228.9487397671164
 21
84.70821783688279
 31
0.0
 11
228.614058644689
 21
85.71658794537915
 31
0.0
 11
228.4999186156164
 21
86.77731415022231
 31
0.0
  0
SPLINE
  5
11DC
100
AcDbEntity
  8
VHH-025
100
AcDbSpline
210
0.0
220
0.0
230
1.0
 70
     8
 71
     3
 72
     9
 73
     5
 74
     3
 42
0.0000001
 43
0.0000001
 44
0.0000000001
 40
0.0
 40
0.0
 40
0.0
 40
0.0
 40
0.3652855011141922
 40
1.009075545627355
 40
1.009075545627355
 40
1.009075545627355
 40
1.009075545627355
 10
241.3204408366864
 20
60.01097831338165
 30
0.0
 10
241.3211959589269
 20
59.87403673696252
 30
0.0
 10
241.32328193109
 20
59.49574524846179
 30
0.0
 10
241.7381623827199
 20
59.49834277711505
 30
0.0
 10
242.0028560477085
 20
59.50000000000045
 30
0.0
 11
241.3204408366864
 21
60.01097831338165
 31
0.0
 11
241.3768004886669
 21
59.65006684646368
 31
0.0
 11
242.0028560477085
 21
59.50000000000045
 31
0.0
  0
ARC
  5
11DD
100
AcDbEntity
  8
VHH-025
100
AcDbCircle
 10
238.839034
 20
56.5
 30
0.0
 40
1.0
100
AcDbArc
 50
90.000004
 51
179.500001
  0
LINE
  5
11DE
100
AcDbEntity
  8
VHH-025
100
AcDbLine
 10
242.29452
 20
59.5
 30
0.0
 11
242.29452
 21
57.5
 31
0.0
  0
SPLINE
  5
11DF
100
AcDbEntity
  8
VHH-025
100
AcDbSpline
210
0.0
220
0.0
230
-1.0
 70
     8
 71
     3
 72
    11
 73
     7
 74
     5
 42
0.0000001
 43
0.0000001
 44
0.0000000001
 40
0.0
 40
0.0
 40
0.0
 40
0.0
 40
0.1804692599193307
 40
0.4428351455142432
 40
0.594256959256912
 40
0.8224153121621672
 40
0.8224153121621672
 40
0.8224153121621672
 40
0.8224153121621672
 10
233.4723028840089
 20
60.01097831338256
 30
0.0
 10
233.4772793254946
 20
59.95001506306219
 30
0.0
 10
233.4894905086648
 20
59.80042354903531
 30
0.0
 10
233.3673956502016
 20
59.61934792468968
 30
0.0
 10
233.1765322806147
 20
59.51472917137746
 30
0.0
 10
233.0485200441845
 20
59.5055296575774
 30
0.0
 10
232.9715743458
 20
59.50000000639807
 30
0.0
 11
233.4723028840089
 21
60.01097831338256
 31
0.0
 11
233.4700933506992
 21
59.83052257992312
 31
0.0
 11
233.3293195635997
 21
59.60912113731342
 31
0.0
 11
233.1969357944817
 21
59.53561533243214
 31
0.0
 11
232.9715743458
 21
59.50000000639807
 31
0.0
  0
LINE
  5
11E0
100
AcDbEntity
  8
VHH-025
100
AcDbLine
 10
232.491132
 20
59.5
 30
0.0
 11
232.491132
 21
57.5
 31
0.0
  0
ARC
  5
11E1
100
AcDbEntity
  8
VHH-025
100
AcDbCircle
 10
235.940092
 20
56.5
 30
0.0
 40
1.0
100
AcDbArc
 50
0.499999
 51
89.999996
  0
SPLINE
  5
11E2
100
AcDbEntity
  8
VHH-025
100
AcDbSpline
210
0.0
220
0.0
230
1.0
 70
     8
 71
     3
 72
    14
 73
    10
 74
     8
 42
0.0000001
 43
0.0000001
 44
0.0000000001
 40
0.0
 40
0.0
 40
0.0
 40
0.0
 40
1.042699229939734
 40
2.810159271199797
 40
5.132104488893749
 40
8.54541216354157
 40
14.83806452703994
 40
23.23839865586939
 40
26.59484554393276
 40
26.59484554393276
 40
26.59484554393276
 40
26.59484554393276
 10
246.5515336891921
 20
86.41681775381631
 30
0.0
 10
246.6947455445333
 20
86.09989191449004
 30
0.0
 10
247.0807131481116
 20
85.2457509886193
 30
0.0
 10
247.5326144237384
 20
83.58386258705495
 30
0.0
 10
247.7661411358672
 20
81.08944430745369
 30
0.0
 10
248.0384160157285
 20
77.09051834881798
 30
0.0
 10
248.1368622891759
 20
71.05280090567092
 30
0.0
 10
248.18345169677
 20
65.03749804162357
 30
0.0
 10
248.2034234774831
 20
61.11855248837249
 30
0.0
 10
248.2091252270629
 20
59.99973156385249
 30
0.0
 11
246.5515336891921
 21
86.41681775381631
 31
0.0
 11
246.962098131119
 21
85.4583509974068
 31
0.0
 11
247.4403022242704
 21
83.75681174051488
 31
0.0
 11
247.724191971939
 21
81.45228658223595
 31
0.0
 11
247.9525904882402
 21
78.04662902464724
 31
0.0
 11
248.1177058741768
 21
71.75614329799874
 31
0.0
 11
248.191174370283
 21
63.35613044943375
 31
0.0
 11
248.2091252270629
 21
59.99973156385249
 31
0.0
  0
LINE
  5
11E3
100
AcDbEntity
  8
VHH-025
100
AcDbLine
 10
243.93756
 20
81.931261
 30
0.0
 11
241.320441
 21
60.010978
 31
0.0
  0
SPLINE
  5
11E4
100
AcDbEntity
  8
VHH-025
100
AcDbSpline
210
0.0
220
0.0
230
-1.0
 70
     8
 71
     3
 72
    14
 73
    10
 74
     8
 42
0.0000001
 43
0.0000001
 44
0.0000000001
 40
0.0
 40
0.0
 40
0.0
 40
0.0
 40
7.363011525298877
 40
13.39023931792484
 40
17.17017577582414
 40
20.43494269983868
 40
23.34546059114097
 40
24.87763384394707
 40
25.34800183035996
 40
25.34800183035996
 40
25.34800183035996
 40
25.34800183035996
 10
226.5836184936324
 20
59.99973156385294
 30
0.0
 10
226.5950143594791
 20
62.45408281737756
 30
0.0
 10
226.6157386745772
 20
66.91752152612102
 30
0.0
 10
226.6733673741641
 20
72.64027094157725
 30
0.0
 10
226.7731772522044
 20
76.99760117722431
 30
0.0
 10
226.9659583132323
 20
80.30917456318979
 30
0.0
 10
227.1638470535426
 20
82.87553779371204
 30
0.0
 10
227.5160500741495
 20
84.4799157985631
 30
0.0
 10
227.7170281367948
 20
85.11649849321988
 30
0.0
 10
227.7642349781763
 20
85.26602256513752
 30
0.0
 11
226.5836184936324
 21
59.99973156385294
 31
0.0
 11
226.625128718766
 21
67.36262607775802
 31
0.0
 11
226.6967605946556
 21
73.38942819318868
 31
0.0
 11
226.8009000872061
 21
77.16792982635593
 31
0.0
 11
226.9837097636354
 21
80.42757454477897
 31
0.0
 11
227.2869697989299
 21
83.32225030323343
 31
0.0
 11
227.6257824772128
 21
84.81649286910055
 31
0.0
 11
227.7642349781763
 21
85.26602256513752
 31
0.0
  0
LINE
  5
11E5
100
AcDbEntity
  8
VHH-025
100
AcDbLine
 10
233.472303
 20
60.010978
 30
0.0
 11
230.855184
 21
81.931261
 31
0.0
  0
LINE
  5
11E6
100
AcDbEntity
  8
VHH-025
100
AcDbLine
 10
467.389563
 20
0.0
 30
0.0
 11
466.940053
 21
56.508727
 31
0.0
  0
LINE
  5
11E7
100
AcDbEntity
  8
VHH-025
100
AcDbLine
 10
466.670484
 20
0.0
 30
0.0
 11
466.239741
 21
55.140004
 31
0.0
  0
LINE
  5
11E8
100
AcDbEntity
  8
VHH-025
100
AcDbLine
 10
474.779127
 20
1.0
 30
0.0
 11
473.05677
 21
39.559818
 31
0.0
  0
LINE
  5
11E9
100
AcDbEntity
  8
VHH-025
100
AcDbLine
 10
473.198172
 20
0.0
 30
0.0
 11
473.198172
 21
1.0
 31
0.0
  0
LINE
  5
11EA
100
AcDbEntity
  8
VHH-025
100
AcDbLine
 10
467.381608
 20
1.0
 30
0.0
 11
474.779127
 21
1.0
 31
0.0
  0
LINE
  5
11EB
100
AcDbEntity
  8
VHH-025
100
AcDbLine
 10
466.239741
 20
55.140004
 30
0.0
 11
352.389563
 21
55.140004
 31
0.0
  0
LINE
  5
11EC
100
AcDbEntity
  8
VHH-025
100
AcDbLine
 10
462.782794
 20
59.5
 30
0.0
 11
352.392825
 21
59.5
 31
0.0
  0
SPLINE
  5
11ED
100
AcDbEntity
  8
VHH-025
100
AcDbSpline
210
0.0
220
0.0
230
-1.0
 70
     8
 71
     3
 72
    13
 73
     9
 74
     7
 42
0.0000001
 43
0.0000001
 44
0.0000000001
 40
0.0
 40
0.0
 40
0.0
 40
0.0
 40
1.069269359765731
 40
2.131729584630803
 40
3.197797541178194
 40
4.262175338941027
 40
4.899079804343071
 40
5.532914177887702
 40
5.532914177887702
 40
5.532914177887702
 40
5.532914177887702
 10
458.4928253949701
 20
86.77974786632104
 30
0.0
 10
458.514769895614
 20
86.4224173978156
 30
0.0
 10
458.5585191537548
 20
85.71003195045756
 30
0.0
 10
458.9121619067343
 20
84.69404124085322
 30
0.0
 10
459.4451811738397
 20
83.75805533196272
 30
0.0
 10
460.1085615322654
 20
83.11816281433038
 30
0.0
 10
460.6587393460405
 20
82.54691720436261
 30
0.0
 10
460.7850753399177
 20
82.1361487216245
 30
0.0
 10
460.8480907236307
 20
81.93126068645279
 30
0.0
 11
458.4928253949701
 21
86.77974786632104
 31
0.0
 11
458.6069654240427
 21
85.71658794537915
 31
0.0
 11
458.9416465464719
 21
84.70821783688235
 31
0.0
 11
459.4842873576826
 21
83.79058946004034
 31
0.0
 11
460.2082995929313
 21
83.01039308759255
 31
0.0
 11
460.6159875498151
 21
82.52106923996098
 31
0.0
 11
460.8480907236307
 21
81.93126068645279
 31
0.0
  0
ARC
  5
11EE
100
AcDbEntity
  8
VHH-025
100
AcDbCircle
 10
472.032899
 20
39.487588
 30
0.0
 40
1.026416
100
AcDbArc
 50
4.035286
 51
99.47558
  0
LINE
  5
11EF
100
AcDbEntity
  8
VHH-025
100
AcDbLine
 10
471.712777
 20
40.5
 30
0.0
 11
469.388475
 21
40.5
 31
0.0
  0
SPLINE
  5
11F0
100
AcDbEntity
  8
VHH-025
100
AcDbSpline
210
0.0
220
0.0
230
1.0
 70
     8
 71
     3
 72
     9
 73
     5
 74
     3
 42
0.0000001
 43
0.0000001
 44
0.0000000001
 40
0.0
 40
0.0
 40
0.0
 40
0.0
 40
0.3652855011139116
 40
1.009075545627074
 40
1.009075545627074
 40
1.009075545627074
 40
1.009075545627074
 10
463.4652096633626
 20
60.01097831338165
 30
0.0
 10
463.4644545411227
 20
59.87403673696251
 30
0.0
 10
463.4623685689617
 20
59.4957452484616
 30
0.0
 10
463.0474881173314
 20
59.49834277711499
 30
0.0
 10
462.7827944523423
 20
59.50000000000045
 30
0.0
 11
463.4652096633626
 21
60.01097831338165
 31
0.0
 11
463.4088500113839
 21
59.65006684646368
 31
0.0
 11
462.7827944523423
 21
59.50000000000045
 31
0.0
  0
ARC
  5
11F1
100
AcDbEntity
  8
VHH-025
100
AcDbCircle
 10
465.940091
 20
56.5
 30
0.0
 40
1.0
100
AcDbArc
 50
0.499999
 51
89.999996
  0
LINE
  5
11F2
100
AcDbEntity
  8
VHH-025
100
AcDbLine
 10
462.491131
 20
59.5
 30
0.0
 11
462.491131
 21
57.5
 31
0.0
  0
SPLINE
  5
11F3
100
AcDbEntity
  8
VHH-025
100
AcDbSpline
210
0.0
220
0.0
230
-1.0
 70
     8
 71
     3
 72
    14
 73
    10
 74
     8
 42
0.0000001
 43
0.0000001
 44
0.0000000001
 40
0.0
 40
0.0
 40
0.0
 40
0.0
 40
1.042699229939018
 40
2.81015927119908
 40
5.132104488893032
 40
8.545412163540852
 40
14.83806452703922
 40
23.23839865586867
 40
26.59484554393205
 40
26.59484554393205
 40
26.59484554393205
 40
26.59484554393205
 10
458.2341168108569
 20
86.41681775381631
 30
0.0
 10
458.0909049555164
 20
86.09989191449001
 30
0.0
 10
457.7049373519399
 20
85.24575098861873
 30
0.0
 10
457.2530360763122
 20
83.58386258705513
 30
0.0
 10
457.0195093641837
 20
81.08944430745358
 30
0.0
 10
456.7472344843223
 20
77.09051834881802
 30
0.0
 10
456.6487882108744
 20
71.05280090567092
 30
0.0
 10
456.6021988032823
 20
65.03749804162355
 30
0.0
 10
456.5822270225666
 20
61.11855248837249
 30
0.0
 10
456.5765252729861
 20
59.99973156385249
 30
0.0
 11
458.2341168108569
 21
86.41681775381631
 31
0.0
 11
457.8235523689317
 21
85.4583509974068
 31
0.0
 11
457.3453482757805
 21
83.75681174051488
 31
0.0
 11
457.0614585281118
 21
81.45228658223595
 31
0.0
 11
456.8330600118106
 21
78.04662902464724
 31
0.0
 11
456.667944625874
 21
71.75614329799874
 31
0.0
 11
456.5944761297678
 21
63.35613044943375
 31
0.0
 11
456.5765252729861
 21
59.99973156385249
 31
0.0
  0
LINE
  5
11F4
100
AcDbEntity
  8
VHH-025
100
AcDbLine
 10
460.848091
 20
81.931261
 30
0.0
 11
463.46521
 21
60.010978
 31
0.0
  0
SPLINE
  5
11F8
100
AcDbEntity
  8
VHH-025
100
AcDbSpline
210
0.0
220
0.0
230
1.0
 70
     8
 71
     3
 72
    12
 73
     8
 74
     0
 42
0.0000001
 43
0.0000001
 40
1.820596868471746
 40
1.820596868471746
 40
1.820596868471746
 40
1.820596868471746
 40
4.503295473557569
 40
6.216955522489968
 40
7.774552440697402
 40
9.232972112989187
 40
10.8164521343443
 40
10.8164521343443
 40
10.8164521343443
 40
10.8164521343443
 10
344.7858461911191
 20
548.4333369542232
 30
0.0
 10
345.2486666571267
 20
548.4479974493219
 30
0.0
 10
345.9606517863385
 20
548.581706810693
 30
0.0
 10
346.6697431923084
 20
549.3649230906026
 30
0.0
 10
346.7231767226266
 20
550.2671833980125
 30
0.0
 10
346.0013377817495
 20
550.7518270163968
 30
0.0
 10
345.4920796821088
 20
550.753929081346
 30
0.0
 10
345.2269821747258
 20
550.7550233244788
 30
0.0
  0
LINE
  5
11F9
100
AcDbEntity
  8
VHH-025
100
AcDbLine
 10
345.891737
 20
570.801541
 30
0.0
 11
358.891737
 21
570.801541
 31
0.0
  0
LINE
  5
11FA
100
AcDbEntity
  8
VHH-025
100
AcDbLine
 10
343.392825
 20
504.215399
 30
0.0
 11
361.392825
 21
504.215399
 31
0.0
  0
LINE
  5
11FB
100
AcDbEntity
  8
VHH-025
100
AcDbLine
 10
340.298954
 20
511.7
 30
0.0
 11
352.392825
 21
511.7
 31
0.0
  0
LINE
  5
11FC
100
AcDbEntity
  8
VHH-025
100
AcDbLine
 10
241.195655
 20
522.0
 30
0.0
 11
463.589995
 21
522.0
 31
0.0
  0
LINE
  5
11FD
100
AcDbEntity
  8
VHH-025
100
AcDbLine
 10
241.221809
 20
523.0
 30
0.0
 11
463.563842
 21
523.0
 31
0.0
  0
LINE
  5
11FE
100
AcDbEntity
  8
VHH-025
100
AcDbLine
 10
244.138065
 20
511.7
 30
0.0
 11
460.644874
 21
511.7
 31
0.0
  0
LINE
  5
11FF
100
AcDbEntity
  8
VHH-025
100
AcDbLine
 10
252.873114
 20
513.577798
 30
0.0
 11
450.004157
 21
513.577834
 31
0.0
  0
LINE
  5
1200
100
AcDbEntity
  8
VHH-025
100
AcDbLine
 10
265.257284
 20
510.3
 30
0.0
 11
439.528366
 21
510.3
 31
0.0
  0
LINE
  5
1201
100
AcDbEntity
  8
VHH-025
100
AcDbLine
 10
265.257284
 20
510.9
 30
0.0
 11
439.528366
 21
510.9
 31
0.0
  0
SPLINE
  5
1202
100
AcDbEntity
  8
VHH-025
100
AcDbSpline
210
0.0
220
0.0
230
1.0
 70
     8
 71
     3
 72
    13
 73
     9
 74
     7
 42
0.0000001
 43
0.0000001
 44
0.0000000001
 40
0.0
 40
0.0
 40
0.0
 40
0.0
 40
3.284478271109898
 40
5.848013776661412
 40
8.811210366642434
 40
13.31059109350569
 40
22.19952180646371
 40
44.15308546549741
 40
44.15308546549741
 40
44.15308546549741
 40
44.15308546549741
 10
312.392825146514
 20
543.2177674662402
 30
0.0
 10
312.54100337733
 20
542.1136587897742
 30
0.0
 10
312.8048347269952
 20
540.1477932190687
 30
0.0
 10
314.6029740807133
 20
537.7197369067357
 30
0.0
 10
317.4674753514805
 20
535.7983223500525
 30
0.0
 10
323.074898502793
 20
535.6006041290059
 30
0.0
 10
334.7387649261178
 20
535.5017952914081
 30
0.0
 10
345.051153167983
 20
535.4672750274946
 30
0.0
 10
352.3914697135233
 20
535.4427036422426
 30
0.0
 11
312.392825146514
 21
543.2177674662402
 31
0.0
 11
313.1305912465914
 21
540.0172208418385
 31
0.0
 11
314.6184780762387
 21
537.9296607659639
 31
0.0
 11
317.095913851027
 21
536.3039775210868
 31
0.0
 11
321.5500833522755
 21
535.667737802572
 31
0.0
 11
330.438133412118
 21
535.5426164474716
 31
0.0
 11
352.3914697135233
 21
535.4427036422426
 31
0.0
  0
SPLINE
  5
1203
100
AcDbEntity
  8
VHH-025
100
AcDbSpline
210
0.0
220
0.0
230
1.0
 70
     8
 71
     3
 72
    13
 73
     9
 74
     0
 42
0.0000001
 43
0.0000001
 40
84.6955679326532
 40
84.6955679326532
 40
84.6955679326532
 40
84.6955679326532
 40
85.81548028374967
 40
86.6565862794542
 40
87.78626872105837
 40
90.14984869879972
 40
105.9639654671869
 40
122.7164926965437
 40
122.7164926965437
 40
122.7164926965437
 40
122.7164926965437
 10
315.892825146514
 20
558.3965874588534
 30
0.0
 10
315.9339616122588
 20
558.0189825823031
 30
0.0
 10
316.0110210246284
 20
557.3572200834919
 30
0.0
 10
316.6144357454495
 20
556.4939072621286
 30
0.0
 10
317.7952418462891
 20
555.5768441575296
 30
0.0
 10
324.5318172419128
 20
555.7075542287343
 30
0.0
 10
335.8662590592184
 20
555.8663416266067
 30
0.0
 10
346.7798744548699
 20
556.0371169104123
 30
0.0
 10
352.3939205045344
 20
556.1249650040713
 30
0.0
  0
LINE
  5
1204
100
AcDbEntity
  8
VHH-025
100
AcDbLine
 10
328.8375
 20
386.5
 30
0.0
 11
376.140935
 21
386.5
 31
0.0
  0
SPLINE
  5
1205
100
AcDbEntity
  8
VHH-025
100
AcDbSpline
210
0.0
220
0.0
230
-1.0
 70
     8
 71
     3
 72
    12
 73
     8
 74
     6
 42
0.0000001
 43
0.0000001
 44
0.0000000001
 40
0.0
 40
0.0
 40
0.0
 40
0.0
 40
2.818436467645279
 40
7.776658894824089
 40
10.89635099231008
 40
14.08080739443995
 40
16.8382136326045
 40
16.8382136326045
 40
16.8382136326045
 40
16.8382136326045
 10
331.7542909732628
 20
400.5504793369913
 30
0.0
 10
332.6885640202204
 20
400.6492465768859
 30
0.0
 10
335.2664198222662
 20
400.921766161223
 30
0.0
 10
338.8792883016638
 20
401.2951948630849
 30
0.0
 10
342.6188409365619
 20
401.629288500197
 30
0.0
 10
345.6337600164503
 20
401.8159050580874
 30
0.0
 10
347.6093907344839
 20
401.9563032898583
 30
0.0
 10
348.5262103912146
 20
402.0214570949105
 30
0.0
 11
331.7542909732628
 21
400.5504793369913
 31
0.0
 11
334.5571923761081
 21
400.8459921930247
 31
0.0
 11
339.4903226551077
 21
401.3441842120251
 31
0.0
 11
342.5983800551084
 21
401.6133644145242
 31
0.0
 11
345.7754674391426
 21
401.8298784585881
 31
0.0
 11
348.5262103912146
 21
402.0214570949105
 31
0.0
  0
SPLINE
  5
1206
100
AcDbEntity
  8
VHH-025
100
AcDbSpline
210
0.0
220
0.0
230
-1.0
 70
     8
 71
     3
 72
    13
 73
     9
 74
     0
 42
0.0000001
 43
0.0000001
 40
0.0209144496635199
 40
0.0209144496635199
 40
0.0209144496635199
 40
0.0209144496635199
 40
3.296463989968982
 40
8.729114775329056
 40
13.2640661055983
 40
17.20111388624939
 40
20.55573193448323
 40
21.91587199566444
 40
21.91587199566444
 40
21.91587199566444
 40
21.91587199566444
 10
352.4892174604729
 20
403.0670801867686
 30
0.0
 10
351.3977054571905
 20
403.0389388192602
 30
0.0
 10
348.4958782220846
 20
402.9638813566411
 30
0.0
 10
344.0879922585782
 20
402.6953103872697
 30
0.0
 10
339.4745635567896
 20
402.2480066770936
 30
0.0
 10
335.5443969009948
 20
401.9386171315595
 30
0.0
 10
332.672804708819
 20
401.6715865250903
 30
0.0
 10
331.106856134872
 20
401.5385657952333
 30
0.0
 10
330.655102441523
 20
401.5001912234206
 30
0.0
  0
LINE
  5
1207
100
AcDbEntity
  8
VHH-025
100
AcDbLine
 10
361.392825
 20
452.471954
 30
0.0
 11
343.392825
 21
452.471954
 31
0.0
  0
LWPOLYLINE
  5
1208
100
AcDbEntity
  8
VHH-025
100
AcDbPolyline
 90
       10
 70
     0
 43
0.0
 10
320.07383
 20
435.042903
 10
326.243817
 20
435.042861
 10
332.966382
 20
435.0427
 10
342.160772
 20
435.042483
 10
351.690841
 20
435.042378
 10
359.018467
 20
435.042423
 10
366.194728
 20
435.042556
 10
371.965923
 20
435.042705
 10
377.497569
 20
435.042841
 10
384.772425
 20
435.042905
  0
LINE
  5
1209
100
AcDbEntity
  8
VHH-025
100
AcDbLine
 10
403.890122
 20
427.330385
 30
0.0
 11
300.895529
 21
427.330385
 31
0.0
  0
LINE
  5
120A
100
AcDbEntity
  8
VHH-025
100
AcDbLine
 10
405.530757
 20
429.519382
 30
0.0
 11
299.254894
 21
429.519382
 31
0.0
  0
LINE
  5
120B
100
AcDbEntity
  8
VHH-025
100
AcDbLine
 10
347.9577
 20
419.032054
 30
0.0
 11
300.895529
 21
427.330385
 31
0.0
  0
LWPOLYLINE
  5
120C
100
AcDbEntity
  8
VHH-025
100
AcDbPolyline
 90
       14
 70
     0
 43
0.0
 10
339.492824
 20
266.9147
 42
-0.236789
 10
339.628278
 20
267.184684
 42
0.124736
 10
340.557157
 20
268.32904
 42
0.224952
 10
340.410848
 20
284.786216
 42
-0.113339
 10
337.405597
 20
297.873749
 10
337.405597
 20
301.748943
 42
-0.301029
 10
340.453
 20
306.351917
 42
-0.203332
 10
364.532649
 20
306.351917
 42
-0.301029
 10
367.580052
 20
301.748943
 10
367.580052
 20
297.873749
 42
-0.113339
 10
364.574801
 20
284.786216
 42
0.224952
 10
364.428492
 20
268.32904
 42
0.124736
 10
365.357371
 20
267.184684
 42
-0.236789
 10
365.492824
 20
266.9147
 42
-0.293728
  0
LINE
  5
120D
100
AcDbEntity
  8
VHH-025
100
AcDbLine
 10
368.365235
 20
222.500004
 30
0.0
 11
336.620415
 21
222.500004
 31
0.0
  0
LINE
  5
120E
100
AcDbEntity
  8
VHH-025
100
AcDbLine
 10
336.492824
 20
248.500004
 30
0.0
 11
368.492825
 21
248.500004
 31
0.0
  0
LINE
  5
120F
100
AcDbEntity
  8
VHH-025
100
AcDbLine
 10
337.576775
 20
258.800004
 30
0.0
 11
367.408874
 21
258.800004
 31
0.0
  0
LINE
  5
1210
100
AcDbEntity
  8
VHH-025
100
AcDbLine
 10
344.492825
 20
208.000004
 30
0.0
 11
360.492825
 21
208.000004
 31
0.0
  0
LINE
  5
1211
100
AcDbEntity
  8
VHH-025
100
AcDbLine
 10
344.492825
 20
206.000004
 30
0.0
 11
360.492825
 21
206.000004
 31
0.0
  0
LINE
  5
1212
100
AcDbEntity
  8
VHH-025
100
AcDbLine
 10
345.492825
 20
202.500004
 30
0.0
 11
359.492825
 21
202.500004
 31
0.0
  0
LINE
  5
1213
100
AcDbEntity
  8
VHH-025
100
AcDbLine
 10
346.967469
 20
250.500004
 30
0.0
 11
345.157339
 21
250.500004
 31
0.0
  0
LWPOLYLINE
  5
1214
100
AcDbEntity
  8
VHH-025
100
AcDbPolyline
 90
        9
 70
   128
 43
0.0
 10
361.362824
 20
258.800004
 42
0.0597
 10
360.797214
 20
263.520263
 42
0.073203
 10
359.230739
 20
267.389757
 42
0.106775
 10
356.280107
 20
270.598298
 42
0.154846
 10
352.492824
 20
271.800004
 42
0.154846
 10
348.705542
 20
270.598298
 42
0.106775
 10
345.754909
 20
267.389757
 42
0.073203
 10
344.188435
 20
263.520263
 42
0.0597
 10
343.622824
 20
258.800004
 42
0.0597
  0
LWPOLYLINE
  5
1215
100
AcDbEntity
  8
VHH-025
100
AcDbPolyline
 90
        4
 70
     1
 43
0.0
 10
343.392825
 20
508.454426
 10
361.392825
 20
508.454426
 10
361.392825
 20
443.898158
 10
343.392825
 20
443.898158
  0
LINE
  5
1216
100
AcDbEntity
  8
VHH-025
100
AcDbLine
 10
345.961471
 20
308.100235
 30
0.0
 11
345.961471
 21
386.5
 31
0.0
  0
SPLINE
  5
1217
100
AcDbEntity
  8
VHH-025
100
AcDbSpline
210
0.0
220
0.0
230
1.0
 70
     8
 71
     3
 72
    16
 73
    12
 74
    10
 42
0.0000001
 43
0.0000001
 44
0.0000000001
 40
0.0
 40
0.0
 40
0.0
 40
0.0
 40
10.85190292105393
 40
27.2837376276067
 40
54.66412706193979
 40
69.64810772620215
 40
94.65864719296773
 40
127.0894285334894
 40
142.0601638503295
 40
154.5348977132991
 40
159.5282562252856
 40
159.5282562252856
 40
159.5282562252856
 40
159.5282562252856
 10
327.7550924396118
 20
226.9834788393795
 30
0.0
 10
327.8376287878912
 20
230.5998404380027
 30
0.0
 10
328.0451407871762
 20
239.6920578805271
 30
0.0
 10
328.3942375378521
 20
257.9101169594987
 30
0.0
 10
328.7078629472309
 20
277.5064598167023
 30
0.0
 10
328.9470924521816
 20
299.9635126364088
 30
0.0
 10
329.1398670802478
 20
324.1046218323539
 30
0.0
 10
329.1376546194027
 20
348.242318586651
 30
0.0
 10
329.0255817444943
 20
368.200786803197
 30
0.0
 10
328.9230292296561
 20
379.0132601394327
 30
0.0
 10
328.8621250582411
 20
384.8356383609896
 30
0.0
 10
328.8447152371673
 20
386.499999942584
 30
0.0
 11
327.7550924396118
 21
226.9834788393795
 31
0.0
 11
327.9974378447231
 21
237.8326753862488
 31
0.0
 11
328.3178338547886
 21
254.2613861762106
 31
0.0
 11
328.7424276589254
 21
281.6384832772041
 31
0.0
 11
328.9065002039342
 21
296.6215656285417
 31
0.0
 11
329.0907983447114
 21
321.6314260562599
 31
0.0
 11
329.0962684547094
 21
354.062206935459
 31
0.0
 11
329.0103782718079
 21
369.0326958654627
 31
0.0
 11
328.8964805402875
 21
381.5069097588779
 31
0.0
 11
328.8447152371673
 21
386.499999942584
 31
0.0
  0
LINE
  5
1218
100
AcDbEntity
  8
VHH-025
100
AcDbLine
 10
330.385977
 20
250.277601
 30
0.0
 11
330.385977
 21
386.5
 31
0.0
  0
LINE
  5
1219
100
AcDbEntity
  8
VHH-025
100
AcDbLine
 10
99.410355
 20
252.643619
 30
0.0
 11
106.363781
 21
244.804901
 31
0.0
  0
LINE
  5
121A
100
AcDbEntity
  8
VHH-025
100
AcDbLine
 10
98.742807
 20
252.571326
 30
0.0
 11
98.742807
 21
226.975144
 31
0.0
  0
LINE
  5
121B
100
AcDbEntity
  8
VHH-025
100
AcDbLine
 10
106.492817
 20
248.500004
 30
0.0
 11
105.621017
 21
223.534903
 31
0.0
  0
LINE
  5
121C
100
AcDbEntity
  8
VHH-025
100
AcDbLine
 10
145.575279
 20
252.643619
 30
0.0
 11
138.621852
 21
244.804901
 31
0.0
  0
LINE
  5
121D
100
AcDbEntity
  8
VHH-025
100
AcDbLine
 10
146.242826
 20
252.571326
 30
0.0
 11
146.242826
 21
226.975144
 31
0.0
  0
LINE
  5
121E
100
AcDbEntity
  8
VHH-025
100
AcDbLine
 10
138.492817
 20
248.500004
 30
0.0
 11
139.364618
 21
223.534903
 31
0.0
  0
SPLINE
  5
121F
100
AcDbEntity
  8
VHH-025
100
AcDbSpline
210
0.0
220
0.0
230
1.0
 70
     8
 71
     3
 72
     9
 73
     5
 74
     3
 42
0.0000001
 43
0.0000001
 44
0.0000000001
 40
0.0
 40
0.0
 40
0.0
 40
0.0
 40
2.733829430439723
 40
5.619066715714674
 40
5.619066715714674
 40
5.619066715714674
 40
5.619066715714674
 10
105.7503964430943
 20
227.2398467542084
 30
0.0
 10
104.8411952172652
 20
227.1766132338639
 30
0.0
 10
102.9724384144235
 20
227.0466441269661
 30
0.0
 10
101.0997358156492
 20
226.9998340195946
 30
0.0
 10
100.1381541801965
 20
226.9757983079812
 30
0.0
 11
105.7503964430943
 21
227.2398467542084
 31
0.0
 11
103.0218587608833
 21
227.0698306623439
 31
0.0
 11
100.1381541801965
 21
226.9757983079812
 31
0.0
  0
SPLINE
  5
1220
100
AcDbEntity
  8
VHH-025
100
AcDbSpline
210
0.0
220
0.0
230
1.0
 70
     8
 71
     3
 72
    11
 73
     7
 74
     5
 42
0.0000001
 43
0.0000001
 44
0.0000000001
 40
0.0
 40
0.0
 40
0.0
 40
0.0
 40
3.507846858671287
 40
6.874945989829177
 40
13.58365647155367
 40
18.98257100025123
 40
18.98257100025123
 40
18.98257100025123
 40
18.98257100025123
 10
98.74280745709256
 20
226.9751439388005
 30
0.0
 10
99.49645395079139
 20
226.0774716798688
 30
0.0
 10
100.9735078668697
 20
224.3181450771501
 30
0.0
 10
104.4912407176924
 20
221.4463472474508
 30
0.0
 10
108.9173918260804
 20
218.6942220973558
 30
0.0
 10
112.7733888526838
 20
217.4654140804672
 30
0.0
 10
114.4928175888417
 20
216.917475946469
 30
0.0
 11
98.74280745709256
 21
226.9751439388005
 31
0.0
 11
101.0827181057247
 21
224.3617538530484
 31
0.0
 11
103.6563143310267
 21
222.1905884912771
 31
0.0
 11
109.4126578067462
 21
218.7451123097976
 31
0.0
 11
114.4928175888417
 21
216.917475946469
 31
0.0
  0
SPLINE
  5
1221
100
AcDbEntity
  8
VHH-025
100
AcDbSpline
210
0.0
220
0.0
230
1.0
 70
     8
 71
     3
 72
    11
 73
     7
 74
     5
 42
0.0000001
 43
0.0000001
 44
0.0000000001
 40
0.0
 40
0.0
 40
0.0
 40
0.0
 40
3.507846858671287
 40
6.874945989829177
 40
13.58365647155523
 40
18.98257100025278
 40
18.98257100025278
 40
18.98257100025278
 40
18.98257100025278
 10
146.2428276029495
 20
226.9751439388005
 30
0.0
 10
145.4891811092506
 20
226.0774716798688
 30
0.0
 10
144.0121271931723
 20
224.3181450771501
 30
0.0
 10
140.4943943423494
 20
221.4463472474503
 30
0.0
 10
136.0682432339601
 20
218.6942220973562
 30
0.0
 10
132.2122462073564
 20
217.4654140804673
 30
0.0
 10
130.4928174711985
 20
216.917475946469
 30
0.0
 11
146.2428276029495
 21
226.9751439388005
 31
0.0
 11
143.9029169543173
 21
224.3617538530484
 31
0.0
 11
141.3293207290153
 21
222.1905884912771
 31
0.0
 11
135.572977253294
 21
218.7451123097976
 31
0.0
 11
130.4928174711985
 21
216.917475946469
 31
0.0
  0
SPLINE
  5
1222
100
AcDbEntity
  8
VHH-025
100
AcDbSpline
210
0.0
220
0.0
230
1.0
 70
     8
 71
     3
 72
     9
 73
     5
 74
     3
 42
0.0000001
 43
0.0000001
 44
0.0000000001
 40
0.0
 40
0.0
 40
0.0
 40
0.0
 40
2.733829430437908
 40
5.619066715712858
 40
5.619066715712858
 40
5.619066715712858
 40
5.619066715712858
 10
139.2352372431323
 20
227.2398467542084
 30
0.0
 10
140.1444384689608
 20
227.1766132338639
 30
0.0
 10
142.013195271802
 20
227.046644126966
 30
0.0
 10
143.8858978705756
 20
226.9998340195946
 30
0.0
 10
144.8474795060283
 20
226.9757983079812
 30
0.0
 11
139.2352372431323
 21
227.2398467542084
 31
0.0
 11
141.9637749253415
 21
227.0698306623439
 31
0.0
 11
144.8474795060283
 21
226.9757983079812
 31
0.0
  0
LINE
  5
1223
100
AcDbEntity
  8
VHH-025
100
AcDbLine
 10
138.365227
 20
222.500004
 30
0.0
 11
106.620408
 21
222.500004
 31
0.0
  0
LINE
  5
1224
100
AcDbEntity
  8
VHH-025
100
AcDbLine
 10
115.492818
 20
202.500004
 30
0.0
 11
129.492818
 21
202.500004
 31
0.0
  0
LINE
  5
1225
100
AcDbEntity
  8
VHH-025
100
AcDbLine
 10
114.492818
 20
206.000004
 30
0.0
 11
130.492818
 21
206.000004
 31
0.0
  0
LINE
  5
1226
100
AcDbEntity
  8
VHH-025
100
AcDbLine
 10
114.492818
 20
208.000004
 30
0.0
 11
130.492818
 21
208.000004
 31
0.0
  0
ARC
  5
1227
100
AcDbEntity
  8
VHH-025
100
AcDbCircle
 10
106.620408
 20
223.500004
 30
0.0
 40
1.0
100
AcDbArc
 50
178.000001
 51
270.000001
  0
ARC
  5
1228
100
AcDbEntity
  8
VHH-025
100
AcDbCircle
 10
112.492818
 20
220.500004
 30
0.0
 40
2.0
100
AcDbArc
 50
0.000001
 51
90.000001
  0
ARC
  5
1229
100
AcDbEntity
  8
VHH-025
100
AcDbCircle
 10
113.742818
 20
207.000004
 30
0.0
 40
1.25
100
AcDbArc
 50
306.869898
 51
53.130103
  0
ARC
  5
122A
100
AcDbEntity
  8
VHH-025
100
AcDbCircle
 10
115.492818
 20
203.500004
 30
0.0
 40
1.0
100
AcDbArc
 50
180.000001
 51
270.000001
  0
LINE
  5
122B
100
AcDbEntity
  8
VHH-025
100
AcDbLine
 10
114.492818
 20
206.000004
 30
0.0
 11
114.492818
 21
203.500004
 31
0.0
  0
LINE
  5
122C
100
AcDbEntity
  8
VHH-025
100
AcDbLine
 10
114.492818
 20
220.500004
 30
0.0
 11
114.492818
 21
208.000004
 31
0.0
  0
ARC
  5
122D
100
AcDbEntity
  8
VHH-025
100
AcDbCircle
 10
138.365227
 20
223.500004
 30
0.0
 40
1.0
100
AcDbArc
 50
270.000001
 51
2.000001
  0
ARC
  5
122E
100
AcDbEntity
  8
VHH-025
100
AcDbCircle
 10
132.492818
 20
220.500004
 30
0.0
 40
2.0
100
AcDbArc
 50
90.000001
 51
180.000001
  0
ARC
  5
122F
100
AcDbEntity
  8
VHH-025
100
AcDbCircle
 10
131.242818
 20
207.000004
 30
0.0
 40
1.25
100
AcDbArc
 50
126.869898
 51
233.130103
  0
ARC
  5
1230
100
AcDbEntity
  8
VHH-025
100
AcDbCircle
 10
129.492818
 20
203.500004
 30
0.0
 40
1.0
100
AcDbArc
 50
270.000001
 51
0.000001
  0
LINE
  5
1231
100
AcDbEntity
  8
VHH-025
100
AcDbLine
 10
130.492818
 20
206.000004
 30
0.0
 11
130.492818
 21
203.500004
 31
0.0
  0
LINE
  5
1232
100
AcDbEntity
  8
VHH-025
100
AcDbLine
 10
130.492818
 20
220.500004
 30
0.0
 11
130.492818
 21
208.000004
 31
0.0
  0
LWPOLYLINE
  5
1233
100
AcDbEntity
  8
VHH-025
100
AcDbPolyline
 90
        3
 70
   128
 43
0.0
 10
118.3421
 20
265.871072
 42
0.073203
 10
117.103497
 20
262.811483
 42
0.0597
 10
116.622817
 20
258.800004
 42
0.0597
  0
LWPOLYLINE
  5
1234
100
AcDbEntity
  8
VHH-025
100
AcDbPolyline
 90
        3
 70
   128
 43
0.0
 10
128.362817
 20
258.800004
 42
0.0597
 10
127.882137
 20
262.811483
 42
0.073203
 10
126.643534
 20
265.871072
 42
0.106775
  0
LWPOLYLINE
  5
1235
100
AcDbEntity
  8
VHH-025
100
AcDbPolyline
 90
        9
 70
   128
 43
0.0
 10
131.362817
 20
258.800004
 42
0.0597
 10
130.797206
 20
263.520263
 42
0.073203
 10
129.230732
 20
267.389757
 42
0.106775
 10
126.280099
 20
270.598298
 42
0.154846
 10
122.492817
 20
271.800004
 42
0.154846
 10
118.705535
 20
270.598298
 42
0.106775
 10
115.754902
 20
267.389757
 42
0.073203
 10
114.188427
 20
263.520263
 42
0.0597
 10
113.622817
 20
258.800004
 42
0.0597
  0
LINE
  5
1236
100
AcDbEntity
  8
VHH-025
100
AcDbLine
 10
126.492817
 20
266.116632
 30
0.0
 11
126.492817
 21
258.800004
 31
0.0
  0
LINE
  5
1237
100
AcDbEntity
  8
VHH-025
100
AcDbLine
 10
125.993785
 20
258.722236
 30
0.0
 11
125.993785
 21
265.745067
 31
0.0
  0
LINE
  5
1238
100
AcDbEntity
  8
VHH-025
100
AcDbLine
 10
109.492817
 20
266.9147
 30
0.0
 11
109.492817
 21
258.800004
 31
0.0
  0
LINE
  5
1239
100
AcDbEntity
  8
VHH-025
100
AcDbLine
 10
118.492817
 20
266.116632
 30
0.0
 11
118.492817
 21
258.800004
 31
0.0
  0
LINE
  5
123A
100
AcDbEntity
  8
VHH-025
100
AcDbLine
 10
118.991848
 20
258.722236
 30
0.0
 11
118.991848
 21
265.745067
 31
0.0
  0
LINE
  5
123B
100
AcDbEntity
  8
VHH-025
100
AcDbLine
 10
135.492817
 20
266.9147
 30
0.0
 11
135.492817
 21
258.800004
 31
0.0
  0
SPLINE
  5
123C
100
AcDbEntity
  8
VHH-025
100
AcDbSpline
210
0.0
220
0.0
230
-1.0
 70
     8
 71
     3
 72
    12
 73
     8
 74
     0
 42
0.0000001
 43
0.0000001
 40
0.0
 40
0.0
 40
0.0
 40
0.0
 40
0.6095442177753267
 40
1.191522444246205
 40
3.446974159399096
 40
9.223824065212813
 40
10.45835832968933
 40
10.45835832968933
 40
10.45835832968933
 40
10.45835832968933
 10
98.74280745709256
 20
252.5713262576741
 30
0.0
 10
98.74014904467912
 20
252.7790584662757
 30
0.0
 10
98.73495244374135
 20
253.1851284144827
 30
0.0
 10
99.37859940331328
 20
254.1847405308794
 30
0.0
 10
101.7913400252364
 20
255.8073989932572
 30
0.0
 10
104.4488017017865
 20
257.3764005994239
 30
0.0
 10
106.5835251864591
 20
258.3189339785417
 30
0.0
 10
106.9620445882919
 20
258.4796735115719
 30
0.0
  0
SPLINE
  5
123D
100
AcDbEntity
  8
VHH-025
100
AcDbSpline
210
0.0
220
0.0
230
-1.0
 70
     8
 71
     3
 72
     8
 73
     4
 74
     0
 42
0.0000001
 43
0.0000001
 40
11.26475349674838
 40
11.26475349674838
 40
11.26475349674838
 40
11.26475349674838
 40
13.18171191061374
 40
13.18171191061374
 40
13.18171191061374
 40
13.18171191061374
 10
137.278791705221
 20
258.7886382306355
 30
0.0
 10
136.6864611456912
 20
259.0292138808022
 30
0.0
 10
136.0896389944009
 20
259.26093419797
 30
0.0
 10
135.4928168431124
 20
259.4926545151374
 30
0.0
  0
SPLINE
  5
123E
100
AcDbEntity
  8
VHH-025
100
AcDbSpline
210
0.0
220
0.0
230
-1.0
 70
     8
 71
     3
 72
    12
 73
     8
 74
     0
 42
0.0000001
 43
0.0000001
 40
0.0
 40
0.0
 40
0.0
 40
0.0
 40
0.6095442177753267
 40
1.191522444246205
 40
3.446974159399096
 40
9.223824065212813
 40
10.45835832968933
 40
10.45835832968933
 40
10.45835832968933
 40
10.45835832968933
 10
146.2428262291341
 20
252.5713262576741
 30
0.0
 10
146.2454846415457
 20
252.7790584662757
 30
0.0
 10
146.2506812424853
 20
253.1851284144827
 30
0.0
 10
145.6070342829116
 20
254.1847405308794
 30
0.0
 10
143.1942936609884
 20
255.8073989932572
 30
0.0
 10
140.5368319844383
 20
257.3764005994239
 30
0.0
 10
138.4021084997675
 20
258.3189339785417
 30
0.0
 10
138.0235890979329
 20
258.4796735115719
 30
0.0
  0
SPLINE
  5
123F
100
AcDbEntity
  8
VHH-025
100
AcDbSpline
210
0.0
220
0.0
230
-1.0
 70
     8
 71
     3
 72
     8
 73
     4
 74
     0
 42
0.0000001
 43
0.0000001
 40
11.26475349674838
 40
11.26475349674838
 40
11.26475349674838
 40
11.26475349674838
 40
13.18171191061374
 40
13.18171191061374
 40
13.18171191061374
 40
13.18171191061374
 10
107.7068419810057
 20
258.7886382306355
 30
0.0
 10
108.2991725405354
 20
259.0292138808022
 30
0.0
 10
108.8959946918239
 20
259.26093419797
 30
0.0
 10
109.4928168431142
 20
259.4926545151374
 30
0.0
  0
LINE
  5
1240
100
AcDbEntity
  8
VHH-025
100
AcDbLine
 10
128.018173
 20
250.500004
 30
0.0
 11
129.828303
 21
250.500004
 31
0.0
  0
LINE
  5
1241
100
AcDbEntity
  8
VHH-025
100
AcDbLine
 10
107.576767
 20
258.800004
 30
0.0
 11
137.408866
 21
258.800004
 31
0.0
  0
LINE
  5
1242
100
AcDbEntity
  8
VHH-025
100
AcDbLine
 10
106.492817
 20
248.500004
 30
0.0
 11
138.492817
 21
248.500004
 31
0.0
  0
ARC
  5
1243
100
AcDbEntity
  8
VHH-025
100
AcDbCircle
 10
107.576767
 20
258.050004
 30
0.0
 40
0.75
100
AcDbArc
 50
90.0
 51
178.0
  0
LINE
  5
1244
100
AcDbEntity
  8
VHH-025
100
AcDbLine
 10
110.286204
 20
250.500004
 30
0.0
 11
109.110325
 21
250.500004
 31
0.0
  0
LINE
  5
1245
100
AcDbEntity
  8
VHH-025
100
AcDbLine
 10
108.078779
 20
250.500004
 30
0.0
 11
107.342336
 21
250.500004
 31
0.0
  0
LINE
  5
1246
100
AcDbEntity
  8
VHH-025
100
AcDbLine
 10
107.342336
 20
250.500004
 30
0.0
 11
107.593084
 21
258.050004
 31
0.0
  0
LINE
  5
1247
100
AcDbEntity
  8
VHH-025
100
AcDbLine
 10
109.110325
 20
250.500004
 30
0.0
 11
109.332933
 21
258.050004
 31
0.0
  0
LINE
  5
1248
100
AcDbEntity
  8
VHH-025
100
AcDbLine
 10
106.492817
 20
248.500004
 30
0.0
 11
106.827224
 21
258.076179
 31
0.0
  0
LINE
  5
1249
100
AcDbEntity
  8
VHH-025
100
AcDbLine
 10
121.072413
 20
250.500004
 30
0.0
 11
119.107322
 21
250.500004
 31
0.0
  0
LINE
  5
124A
100
AcDbEntity
  8
VHH-025
100
AcDbLine
 10
119.107322
 20
250.500004
 30
0.0
 11
119.172889
 21
258.050004
 31
0.0
  0
LINE
  5
124B
100
AcDbEntity
  8
VHH-025
100
AcDbLine
 10
113.298768
 20
250.500004
 30
0.0
 11
111.757337
 21
250.500004
 31
0.0
  0
LINE
  5
124C
100
AcDbEntity
  8
VHH-025
100
AcDbLine
 10
116.967461
 20
250.500004
 30
0.0
 11
115.157331
 21
250.500004
 31
0.0
  0
LINE
  5
124D
100
AcDbEntity
  8
VHH-025
100
AcDbLine
 10
111.757337
 20
250.500004
 30
0.0
 11
111.937819
 21
258.050004
 31
0.0
  0
LINE
  5
124E
100
AcDbEntity
  8
VHH-025
100
AcDbLine
 10
115.157331
 20
250.500004
 30
0.0
 11
115.284346
 21
258.050004
 31
0.0
  0
LINE
  5
124F
100
AcDbEntity
  8
VHH-025
100
AcDbLine
 10
123.913221
 20
250.500004
 30
0.0
 11
125.878312
 21
250.500004
 31
0.0
  0
LINE
  5
1250
100
AcDbEntity
  8
VHH-025
100
AcDbLine
 10
125.878312
 20
250.500004
 30
0.0
 11
125.812744
 21
258.050004
 31
0.0
  0
ARC
  5
1251
100
AcDbEntity
  8
VHH-025
100
AcDbCircle
 10
137.408866
 20
258.050004
 30
0.0
 40
0.75
100
AcDbArc
 50
2.0
 51
90.0
  0
LINE
  5
1252
100
AcDbEntity
  8
VHH-025
100
AcDbLine
 10
134.699429
 20
250.500004
 30
0.0
 11
135.875309
 21
250.500004
 31
0.0
  0
LINE
  5
1253
100
AcDbEntity
  8
VHH-025
100
AcDbLine
 10
136.906855
 20
250.500004
 30
0.0
 11
137.643298
 21
250.500004
 31
0.0
  0
LINE
  5
1254
100
AcDbEntity
  8
VHH-025
100
AcDbLine
 10
131.686865
 20
250.500004
 30
0.0
 11
133.228297
 21
250.500004
 31
0.0
  0
LINE
  5
1255
100
AcDbEntity
  8
VHH-025
100
AcDbLine
 10
133.228297
 20
250.500004
 30
0.0
 11
133.047815
 21
258.050004
 31
0.0
  0
LINE
  5
1256
100
AcDbEntity
  8
VHH-025
100
AcDbLine
 10
135.875309
 20
250.500004
 30
0.0
 11
135.6527
 21
258.050004
 31
0.0
  0
LINE
  5
1257
100
AcDbEntity
  8
VHH-025
100
AcDbLine
 10
129.828303
 20
250.500004
 30
0.0
 11
129.701287
 21
258.050004
 31
0.0
  0
LINE
  5
1258
100
AcDbEntity
  8
VHH-025
100
AcDbLine
 10
137.643298
 20
250.500004
 30
0.0
 11
137.39255
 21
258.050004
 31
0.0
  0
LINE
  5
1259
100
AcDbEntity
  8
VHH-025
100
AcDbLine
 10
138.492817
 20
248.500004
 30
0.0
 11
138.158409
 21
258.076179
 31
0.0
  0
LWPOLYLINE
  5
125A
100
AcDbEntity
  8
VHH-025
100
AcDbPolyline
 90
        5
 70
   128
 43
0.0
 10
126.643534
 20
265.871072
 42
0.106775
 10
124.550438
 20
268.14712
 42
0.154846
 10
122.492817
 20
268.800004
 42
0.154846
 10
120.435196
 20
268.14712
 42
0.096835
 10
118.492817
 20
266.116632
 42
0.073203
  0
LWPOLYLINE
  5
125B
100
AcDbEntity
  8
VHH-025
100
AcDbPolyline
 90
        2
 70
   128
 43
0.0
 10
118.492817
 20
266.116632
 42
0.009838
 10
118.3421
 20
265.871072
 42
0.073203
  0
LINE
  5
125C
100
AcDbEntity
  8
VHH-025
100
AcDbLine
 10
118.991848
 20
265.745067
 30
0.0
 11
119.78519
 21
266.522747
 31
0.0
  0
LINE
  5
125D
100
AcDbEntity
  8
VHH-025
100
AcDbLine
 10
119.78519
 20
266.522747
 30
0.0
 11
125.200444
 21
266.522747
 31
0.0
  0
LINE
  5
125E
100
AcDbEntity
  8
VHH-025
100
AcDbLine
 10
125.993785
 20
265.745067
 30
0.0
 11
125.200444
 21
266.522747
 31
0.0
  0
LWPOLYLINE
  5
125F
100
AcDbEntity
  8
VHH-025
100
AcDbPolyline
 90
       14
 70
     0
 43
0.0
 10
109.492817
 20
266.9147
 42
-0.236789
 10
109.62827
 20
267.184684
 42
0.124736
 10
110.55715
 20
268.32904
 42
0.224952
 10
110.41084
 20
284.786216
 42
-0.113339
 10
107.405589
 20
297.873749
 10
107.405589
 20
301.748943
 42
-0.301029
 10
110.452993
 20
306.351917
 42
-0.203332
 10
134.532641
 20
306.351917
 42
-0.301029
 10
137.580045
 20
301.748943
 10
137.580045
 20
297.873749
 42
-0.113339
 10
134.574794
 20
284.786216
 42
0.224952
 10
134.428484
 20
268.32904
 42
0.124736
 10
135.357364
 20
267.184684
 42
-0.236789
 10
135.492817
 20
266.9147
 42
-0.293728
  0
LINE
  5
1260
100
AcDbEntity
  8
VHH-025
100
AcDbLine
 10
330.748632
 20
226.998421
 30
0.0
 11
330.748632
 21
249.670246
 31
0.0
  0
LINE
  5
1261
100
AcDbEntity
  8
VHH-025
100
AcDbLine
 10
336.492825
 20
248.500004
 30
0.0
 11
335.621025
 21
223.534903
 31
0.0
  0
LINE
  5
1262
100
AcDbEntity
  8
VHH-025
100
AcDbLine
 10
330.387817
 20
226.98505
 30
0.0
 11
330.387817
 21
249.670246
 31
0.0
  0
LINE
  5
1263
100
AcDbEntity
  8
VHH-025
100
AcDbLine
 10
331.480684
 20
250.329031
 30
0.0
 11
334.145334
 21
247.304525
 31
0.0
  0
SPLINE
  5
1264
100
AcDbEntity
  8
VHH-025
100
AcDbSpline
210
0.0
220
0.0
230
1.0
 70
     8
 71
     3
 72
    11
 73
     7
 74
     5
 42
0.0000001
 43
0.0000001
 44
0.0000000001
 40
0.0
 40
0.0
 40
0.0
 40
0.0
 40
3.507846858670609
 40
6.8749459898285
 40
13.583656471553
 40
18.98257100025055
 40
18.98257100025055
 40
18.98257100025055
 40
18.98257100025055
 10
328.7428150299792
 20
226.9751439848482
 30
0.0
 10
329.496461523678
 20
226.0774717259169
 30
0.0
 10
330.9735154397567
 20
224.3181451231988
 30
0.0
 10
334.4912482905789
 20
221.4463472934993
 30
0.0
 10
338.9173993989672
 20
218.6942221434045
 30
0.0
 10
342.7733964255705
 20
217.4654141265158
 30
0.0
 10
344.4928251617284
 20
216.9174759925176
 30
0.0
 11
328.7428150299792
 21
226.9751439848482
 31
0.0
 11
331.0827256786115
 21
224.361753899097
 31
0.0
 11
333.6563219039135
 21
222.1905885373257
 31
0.0
 11
339.4126653796329
 21
218.7451123558462
 31
0.0
 11
344.4928251617284
 21
216.9174759925176
 31
0.0
  0
SPLINE
  5
1265
100
AcDbEntity
  8
VHH-025
100
AcDbSpline
210
0.0
220
0.0
230
1.0
 70
     8
 71
     3
 72
     9
 73
     5
 74
     3
 42
0.0000001
 43
0.0000001
 44
0.0000000001
 40
0.0
 40
0.0
 40
0.0
 40
0.0
 40
4.377888469769101
 40
8.000949851345648
 40
8.000949851345648
 40
8.000949851345648
 40
8.000949851345648
 10
335.7504039888672
 20
227.2398460238487
 30
0.0
 10
334.2933934034902
 20
227.1514715822626
 30
0.0
 10
331.6305871883525
 20
226.9899600498987
 30
0.0
 10
328.9630365027504
 20
226.9854989530105
 30
0.0
 10
327.7550924396118
 20
226.9834788393795
 30
0.0
 11
335.7504039888672
 21
227.2398460238487
 31
0.0
 11
331.3779517562879
 21
227.0217430033512
 31
0.0
 11
327.7550924396118
 21
226.9834788393795
 31
0.0
  0
ARC
  5
1266
100
AcDbEntity
  8
VHH-025
100
AcDbCircle
 10
342.492825
 20
220.500004
 30
0.0
 40
2.0
100
AcDbArc
 50
0.000001
 51
90.000001
  0
LINE
  5
1267
100
AcDbEntity
  8
VHH-025
100
AcDbLine
 10
344.492825
 20
206.000004
 30
0.0
 11
344.492825
 21
203.500004
 31
0.0
  0
ARC
  5
1268
100
AcDbEntity
  8
VHH-025
100
AcDbCircle
 10
345.492825
 20
203.500004
 30
0.0
 40
1.0
100
AcDbArc
 50
180.000001
 51
270.000001
  0
ARC
  5
1269
100
AcDbEntity
  8
VHH-025
100
AcDbCircle
 10
343.742825
 20
207.000004
 30
0.0
 40
1.25
100
AcDbArc
 50
306.869898
 51
53.130103
  0
LINE
  5
126A
100
AcDbEntity
  8
VHH-025
100
AcDbLine
 10
344.492825
 20
220.500004
 30
0.0
 11
344.492825
 21
208.000004
 31
0.0
  0
ARC
  5
126B
100
AcDbEntity
  8
VHH-025
100
AcDbCircle
 10
336.620415
 20
223.500004
 30
0.0
 40
1.0
100
AcDbArc
 50
178.000001
 51
270.000001
  0
LINE
  5
126C
100
AcDbEntity
  8
VHH-025
100
AcDbLine
 10
339.492824
 20
266.9147
 30
0.0
 11
339.492824
 21
258.800004
 31
0.0
  0
SPLINE
  5
126D
100
AcDbEntity
  8
VHH-025
100
AcDbSpline
210
0.0
220
0.0
230
-1.0
 70
     8
 71
     3
 72
    12
 73
     8
 74
     0
 42
0.0000001
 43
0.0000001
 40
0.0
 40
0.0
 40
0.0
 40
0.0
 40
0.892898863725035
 40
1.516803918134276
 40
4.464088593242262
 40
7.443930533147192
 40
8.036731721038405
 40
8.036731721038405
 40
8.036731721038405
 40
8.036731721038405
 10
330.7486320549041
 20
249.6702458725499
 30
0.0
 10
330.7684634355819
 20
249.9795322660925
 30
0.0
 10
330.8021518152336
 20
250.5049297468253
 30
0.0
 10
331.8722588256505
 20
251.6092288818558
 30
0.0
 10
333.6605690891565
 20
252.8271187105251
 30
0.0
 10
335.5015080920848
 20
253.9952561029481
 30
0.0
 10
336.5364241201741
 20
254.5855470643041
 30
0.0
 10
336.7087185156624
 20
254.6824021230636
 30
0.0
  0
LINE
  5
126E
100
AcDbEntity
  8
VHH-025
100
AcDbLine
 10
345.157339
 20
250.500004
 30
0.0
 11
345.284354
 21
258.050004
 31
0.0
  0
ARC
  5
126F
100
AcDbEntity
  8
VHH-025
100
AcDbCircle
 10
337.576775
 20
258.050004
 30
0.0
 40
0.75
100
AcDbArc
 50
90.0
 51
178.0
  0
LINE
  5
1270
100
AcDbEntity
  8
VHH-025
100
AcDbLine
 10
330.385977
 20
250.277601
 30
0.0
 11
330.822787
 21
250.275893
 31
0.0
  0
LINE
  5
1271
100
AcDbEntity
  8
VHH-025
100
AcDbLine
 10
338.078786
 20
250.500004
 30
0.0
 11
337.342343
 21
250.500004
 31
0.0
  0
LINE
  5
1272
100
AcDbEntity
  8
VHH-025
100
AcDbLine
 10
340.286212
 20
250.500004
 30
0.0
 11
339.110332
 21
250.500004
 31
0.0
  0
LINE
  5
1273
100
AcDbEntity
  8
VHH-025
100
AcDbLine
 10
341.757344
 20
250.500004
 30
0.0
 11
341.937826
 21
258.050004
 31
0.0
  0
LINE
  5
1274
100
AcDbEntity
  8
VHH-025
100
AcDbLine
 10
336.492824
 20
248.500004
 30
0.0
 11
336.827232
 21
258.076179
 31
0.0
  0
LINE
  5
1275
100
AcDbEntity
  8
VHH-025
100
AcDbLine
 10
339.110332
 20
250.500004
 30
0.0
 11
339.332941
 21
258.050004
 31
0.0
  0
LINE
  5
1276
100
AcDbEntity
  8
VHH-025
100
AcDbLine
 10
337.342343
 20
250.500004
 30
0.0
 11
337.593091
 21
258.050004
 31
0.0
  0
LINE
  5
1277
100
AcDbEntity
  8
VHH-025
100
AcDbLine
 10
343.298776
 20
250.500004
 30
0.0
 11
341.757344
 21
250.500004
 31
0.0
  0
LINE
  5
1278
100
AcDbEntity
  8
VHH-025
100
AcDbLine
 10
11.22181
 20
523.0
 30
0.0
 11
233.563843
 21
523.0
 31
0.0
  0
LINE
  5
1279
100
AcDbEntity
  8
VHH-025
100
AcDbLine
 10
11.944069
 20
522.0
 30
0.0
 11
232.848676
 21
522.0
 31
0.0
  0
LINE
  5
127A
100
AcDbEntity
  8
VHH-025
100
AcDbLine
 10
12.001594
 20
387.5
 30
0.0
 11
232.79115
 21
387.5
 31
0.0
  0
LINE
  5
127B
100
AcDbEntity
  8
VHH-025
100
AcDbLine
 10
12.229406
 20
386.5
 30
0.0
 11
232.563338
 21
386.5
 31
0.0
  0
LINE
  5
127C
100
AcDbEntity
  8
VHH-025
100
AcDbLine
 10
16.192827
 20
503.049161
 30
0.0
 11
16.192827
 21
406.706543
 31
0.0
  0
LWPOLYLINE
  5
127D
100
AcDbEntity
  8
VHH-025
100
AcDbPolyline
 90
       11
 70
     0
 43
0.0
 10
22.079552
 20
521.508898
 10
22.114168
 20
488.970295
 10
22.126615
 20
472.101423
 10
22.127957
 20
469.982879
 10
22.129242
 20
467.862187
 10
22.130459
 20
465.739785
 10
22.131633
 20
463.615908
 10
22.133885
 20
459.364269
 10
22.136045
 20
455.107515
 10
22.149995
 20
421.039066
 10
22.158434
 20
388.001673
  0
SPLINE
  5
127E
100
AcDbEntity
  8
VHH-025
100
AcDbSpline
210
0.0
220
0.0
230
1.0
 70
     8
 71
     3
 72
    13
 73
     9
 74
     7
 42
0.0000001
 43
0.0000001
 44
0.0000000001
 40
0.0
 40
0.0
 40
0.0
 40
0.0
 40
3.191871827524609
 40
8.851217422001266
 40
13.24422149420543
 40
15.17417334972449
 40
16.19007197052209
 40
17.17775719291084
 40
17.17775719291084
 40
17.17775719291084
 40
17.17775719291084
 10
17.81532892687027
 20
386.0001236641583
 30
0.0
 10
17.81411448827025
 20
384.9361797640104
 30
0.0
 10
17.81074679035651
 20
381.9858110481325
 30
0.0
 10
17.7484293450958
 20
377.5707983032302
 30
0.0
 10
17.58001420714792
 20
373.5803650020897
 30
0.0
 10
17.35851295285822
 20
371.1409716258466
 30
0.0
 10
17.10021443147082
 20
369.8534213080435
 30
0.0
 10
16.91199590080725
 20
369.2124027867559
 30
0.0
 10
16.81921183192571
 20
368.8964067664715
 30
0.0
 11
17.81532892687027
 21
386.0001236641583
 31
0.0
 11
17.80670764890783
 21
382.8082634797342
 31
0.0
 11
17.71268025600329
 21
377.149699049854
 31
0.0
 11
17.4961745179844
 21
372.7620333784739
 31
0.0
 11
17.28605958927255
 21
370.8435532817948
 31
0.0
 11
17.08379716973468
 21
369.8479931774409
 31
0.0
 11
16.81921183192571
 21
368.8964067664715
 31
0.0
  0
SPLINE
  5
127F
100
AcDbEntity
  8
VHH-025
100
AcDbSpline
210
0.0
220
0.0
230
-1.0
 70
     8
 71
     3
 72
    14
 73
    10
 74
     8
 42
0.0000001
 43
0.0000001
 44
0.0000000001
 40
0.0
 40
0.0
 40
0.0
 40
0.0
 40
6.668510831000305
 40
11.72772936545923
 40
13.6169314974813
 40
14.43388961246706
 40
16.23491697104807
 40
18.01579771733867
 40
19.12641922158365
 40
19.12641922158365
 40
19.12641922158365
 40
19.12641922158365
 10
11.31240155235355
 20
385.9851389888822
 30
0.0
 10
11.7139942152963
 20
383.7961378408974
 30
0.0
 10
12.4202643534885
 20
379.946400816418
 30
0.0
 10
13.27119800684896
 20
375.5117558875622
 30
0.0
 10
13.63723463293996
 20
372.9147307506469
 30
0.0
 10
14.38639766295245
 20
371.5844757337943
 30
0.0
 10
15.65865616421951
 20
370.7356692746977
 30
0.0
 10
16.1896052113832
 20
369.1740985358996
 30
0.0
 10
16.26418157120427
 20
368.2168504587342
 30
0.0
 10
16.2928262346868
 20
367.8491729654174
 30
0.0
 11
11.31240155235355
 21
385.9851389888822
 31
0.0
 11
12.5257816306057
 21
379.4279486234231
 31
0.0
 11
13.41273648513197
 21
374.4470849166505
 31
0.0
 11
13.84482613830005
 21
372.6079592474093
 31
0.0
 11
14.25418991731021
 21
371.9009642982932
 31
0.0
 11
15.50503196552563
 21
370.6051658121182
 31
0.0
 11
16.16962715474983
 21
368.9529402019279
 31
0.0
 11
16.2928262346868
 21
367.8491729654174
 31
0.0
  0
SPLINE
  5
1280
100
AcDbEntity
  8
VHH-025
100
AcDbSpline
210
0.0
220
0.0
230
1.0
 70
     8
 71
     3
 72
    10
 73
     6
 74
     4
 42
0.0000001
 43
0.0000001
 44
0.0000000001
 40
0.0
 40
0.0
 40
0.0
 40
0.0
 40
0.416411174439418
 40
0.9163436501236883
 40
1.254422898233775
 40
1.254422898233775
 40
1.254422898233775
 40
1.254422898233775
 10
12.22940648651274
 20
386.5000000000004
 30
0.0
 10
12.09688928149474
 20
386.5057205132849
 30
0.0
 10
11.80527535083148
 20
386.5183089267219
 30
0.0
 10
11.2810495112132
 20
386.4217752936949
 30
0.0
 10
11.30338909094651
 20
386.1106545120475
 30
0.0
 10
11.31240155235355
 20
385.9851389888822
 30
0.0
 11
12.22940648651274
 21
386.5000000000004
 31
0.0
 11
11.81299531207332
 21
386.499999984006
 31
0.0
 11
11.34599829928083
 21
386.3215447507213
 31
0.0
 11
11.31240155235355
 21
385.9851389888822
 31
0.0
  0
SPLINE
  5
1281
100
AcDbEntity
  8
VHH-025
100
AcDbSpline
210
0.0
220
0.0
230
1.0
 70
     8
 71
     3
 72
    11
 73
     7
 74
     5
 42
0.0000001
 43
0.0000001
 44
0.0000000001
 40
0.0
 40
0.0
 40
0.0
 40
0.0
 40
0.3841279782296366
 40
0.6571598466962501
 40
0.8605649504649349
 40
1.063282916677501
 40
1.063282916677501
 40
1.063282916677501
 40
1.063282916677501
 10
12.00159440077914
 20
387.5000000000004
 30
0.0
 10
11.87526943244231
 20
387.5107752757321
 30
0.0
 10
11.6591547479334
 20
387.5292094407741
 30
0.0
 10
11.36858443372554
 20
387.6184910175473
 30
0.0
 10
11.24800956900796
 20
387.8286078052198
 30
0.0
 10
11.23971729937359
 20
387.9643318170879
 30
0.0
 10
11.23557817958499
 20
388.0320790042974
 30
0.0
 11
12.00159440077914
 21
387.5000000000004
 31
0.0
 11
11.62064607675529
 21
387.5493221865113
 31
0.0
 11
11.37012738673183
 21
387.6578891573048
 31
0.0
 11
11.2638939643657
 21
387.8313483634933
 31
0.0
 11
11.23557817958499
 21
388.0320790042974
 31
0.0
  0
LINE
  5
1282
100
AcDbEntity
  8
VHH-025
100
AcDbLine
 10
13.390965
 20
387.499973
 30
0.0
 11
13.303336
 21
386.5
 31
0.0
  0
SPLINE
  5
1283
100
AcDbEntity
  8
VHH-025
100
AcDbSpline
210
0.0
220
0.0
230
1.0
 70
     8
 71
     3
 72
    13
 73
     9
 74
     7
 42
0.0000001
 43
0.0000001
 44
0.0000000001
 40
0.0
 40
0.0
 40
0.0
 40
0.0
 40
3.85332590562823
 40
7.478466687706418
 40
11.60106584746573
 40
14.07178639561697
 40
16.56731397739596
 40
17.70441817269807
 40
17.70441817269807
 40
17.70441817269807
 40
17.70441817269807
 10
17.71521409982597
 20
388.000128256202
 30
0.0
 10
17.71312371848395
 20
389.2845892633656
 30
0.0
 10
17.70906674338925
 20
391.7774484424191
 30
0.0
 10
17.66862068020665
 20
395.6440826778794
 30
0.0
 10
17.56482720861493
 20
399.050065214559
 30
0.0
 10
17.3988546729993
 20
402.0729481233018
 30
0.0
 10
17.1590314202141
 20
404.1030503465847
 30
0.0
 10
16.82530474209067
 20
405.2680429028111
 30
0.0
 10
16.72083998236121
 20
405.6327145801165
 30
0.0
 11
17.71521409982597
 21
388.000128256202
 31
0.0
 11
17.70309794693639
 21
391.8534351131529
 31
0.0
 11
17.65903967028316
 21
395.4783081534324
 31
0.0
 11
17.527159225192
 21
399.5987973695632
 31
0.0
 11
17.37345466003353
 21
402.0647322701043
 31
0.0
 11
17.01552046345932
 21
404.5344571580913
 31
0.0
 11
16.72083998236121
 21
405.6327145801165
 31
0.0
  0
SPLINE
  5
1284
100
AcDbEntity
  8
VHH-025
100
AcDbSpline
210
0.0
220
0.0
230
-1.0
 70
     8
 71
     3
 72
    15
 73
    11
 74
     9
 42
0.0000001
 43
0.0000001
 44
0.0000000001
 40
0.0
 40
0.0
 40
0.0
 40
0.0
 40
3.524230532083018
 40
10.56230341439668
 40
14.08777785911595
 40
14.66940041025992
 40
16.34667952900539
 40
17.98151335014115
 40
19.07167367623197
 40
19.63693971326737
 40
19.63693971326737
 40
19.63693971326737
 40
19.63693971326737
 10
11.23557817958499
 20
388.0320790042965
 30
0.0
 10
11.36496999192579
 20
389.2003657571214
 30
0.0
 10
11.75276402777012
 20
392.7017823205444
 30
0.0
 10
12.74730463320173
 20
397.291419870203
 30
0.0
 10
13.35084594141754
 20
400.9694239614224
 30
0.0
 10
14.11226570598152
 20
402.767192370585
 30
0.0
 10
15.26302992643353
 20
403.5168504832761
 30
0.0
 10
15.88522577013282
 20
404.8982947199797
 30
0.0
 10
16.12422255675421
 20
405.9688291793045
 30
0.0
 10
16.17536376448534
 20
406.5187619337392
 30
0.0
 10
16.19282656951691
 20
406.7065433510583
 30
0.0
 11
11.23557817958499
 21
388.0320790042965
 31
0.0
 11
11.66359433744583
 21
391.5302217989628
 31
0.0
 11
12.91817441694002
 21
398.455573683228
 31
0.0
 11
13.74473833856973
 21
401.8827827728268
 31
0.0
 11
13.9925865510213
 21
402.4089539004876
 31
0.0
 11
15.14459261743832
 21
403.6280302988802
 31
0.0
 11
15.89482860304633
 21
405.0805548558596
 31
0.0
 11
16.13238073370666
 21
406.1445184463086
 31
0.0
 11
16.19282656951691
 21
406.7065433510583
 31
0.0
  0
SPLINE
  5
1285
100
AcDbEntity
  8
VHH-025
100
AcDbSpline
210
0.0
220
0.0
230
1.0
 70
     8
 71
     3
 72
    13
 73
     9
 74
     7
 42
0.0000001
 43
0.0000001
 44
0.0000000001
 40
0.0
 40
0.0
 40
0.0
 40
0.0
 40
3.28447827110949
 40
5.848013776662059
 40
8.811210366641562
 40
13.31059109350662
 40
22.19952180646463
 40
44.15308546549833
 40
44.15308546549833
 40
44.15308546549833
 40
44.15308546549833
 10
82.39282627612192
 20
543.2177674662402
 30
0.0
 10
82.54100450693696
 20
542.113658789774
 30
0.0
 10
82.80483585660059
 20
540.1477932190678
 30
0.0
 10
84.6029752103213
 20
537.7197369067369
 30
0.0
 10
87.46747648108707
 20
535.7983223500513
 30
0.0
 10
93.07489963240087
 20
535.6006041290068
 30
0.0
 10
104.7387660557253
 20
535.5017952914082
 30
0.0
 10
115.0511542975908
 20
535.467275027495
 30
0.0
 10
122.3914708431311
 20
535.442703642243
 30
0.0
 11
82.39282627612192
 21
543.2177674662402
 31
0.0
 11
83.13059237619745
 21
540.0172208418385
 31
0.0
 11
84.61847920584659
 21
537.9296607659639
 31
0.0
 11
87.09591498063309
 21
536.3039775210868
 31
0.0
 11
91.55008448188345
 21
535.667737802572
 31
0.0
 11
100.4381345417259
 21
535.542616447472
 31
0.0
 11
122.3914708431311
 21
535.442703642243
 31
0.0
  0
SPLINE
  5
1286
100
AcDbEntity
  8
VHH-025
100
AcDbSpline
210
0.0
220
0.0
230
1.0
 70
     8
 71
     3
 72
    20
 73
    16
 74
     0
 42
0.0000001
 43
0.0000001
 40
0.0
 40
0.0
 40
0.0
 40
0.0
 40
0.3918367249981683
 40
0.3918367249981683
 40
0.6525501684806338
 40
0.6525501684806338
 40
1.182440120300543
 40
1.182440120300543
 40
1.712330072120452
 40
1.712330072120452
 40
2.006270928035041
 40
2.006270928035041
 40
2.315289501487082
 40
2.315289501487082
 40
2.616402084268149
 40
2.616402084268149
 40
2.616402084268149
 40
2.616402084268149
 10
66.49699235581102
 20
553.4448793183246
 30
0.0
 10
66.6275897138512
 20
553.465204794872
 30
0.0
 10
66.73977175252367
 20
553.4834693973926
 30
0.0
 10
66.88938521678938
 20
553.5193358176975
 30
0.0
 10
66.93909146235819
 20
553.5348291204518
 30
0.0
 10
67.06190791926565
 20
553.5841206296577
 30
0.0
 10
67.14651172047524
 20
553.6366299244718
 30
0.0
 10
67.30725242703375
 20
553.7782206218094
 30
0.0
 10
67.38053986794148
 20
553.8656042831989
 30
0.0
 10
67.46496316269804
 20
554.0052175410246
 30
0.0
 10
67.48962535382088
 20
554.0559666098342
 30
0.0
 10
67.52811736113653
 20
554.1581088020206
 30
0.0
 10
67.54082857861249
 20
554.2062883098096
 30
0.0
 10
67.5652892581129
 20
554.3462616220844
 30
0.0
 10
67.57511313668874
 20
554.431751326887
 30
0.0
 10
67.58606103217243
 20
554.5320804753004
 30
0.0
  0
LWPOLYLINE
  5
1287
100
AcDbEntity
  8
VHH-025
100
AcDbPolyline
 90
        4
 70
     1
 43
0.0
 10
64.112031
 20
566.035148
 10
64.862309
 20
566.035148
 10
64.862309
 20
561.770476
 10
64.112031
 20
561.770476
  0
SPLINE
  5
1288
100
AcDbEntity
  8
VHH-025
100
AcDbSpline
210
0.0
220
0.0
230
1.0
 70
     8
 71
     3
 72
    11
 73
     7
 74
     5
 42
0.0000001
 43
0.0000001
 44
0.0000000001
 40
0.0
 40
0.0
 40
0.0
 40
0.0
 40
0.6629926957073451
 40
1.324539577353431
 40
2.135160944774072
 40
2.616402084267352
 40
2.616402084267352
 40
2.616402084267352
 40
2.616402084267352
 10
66.60464068749206
 20
552.7532061030801
 30
0.0
 10
66.82561306944394
 20
552.7875970665302
 30
0.0
 10
67.26707595024547
 20
552.8563039957133
 30
0.0
 10
67.86535807468036
 20
553.282164396186
 30
0.0
 10
68.21746362632004
 20
553.8653584337157
 30
0.0
 10
68.26443335296705
 20
554.295800310269
 30
0.0
 10
68.2819303889537
 20
554.4561473580775
 30
0.0
 11
66.60464068749206
 21
552.7532061030801
 31
0.0
 11
67.24993926515162
 21
552.9053542553261
 31
0.0
 11
67.79387283458163
 21
553.2818918346761
 31
0.0
 11
68.20364337253704
 21
553.9813166752005
 31
0.0
 11
68.2819303889537
 21
554.4561473580775
 31
0.0
  0
LINE
  5
1289
100
AcDbEntity
  8
VHH-025
100
AcDbLine
 10
66.568692
 20
553.452282
 30
0.0
 11
61.66373
 21
553.200051
 31
0.0
  0
SPLINE
  5
128A
100
AcDbEntity
  8
VHH-025
100
AcDbSpline
210
0.0
220
0.0
230
1.0
 70
     8
 71
     3
 72
    13
 73
     9
 74
     7
 42
0.0000001
 43
0.0000001
 44
0.0000000001
 40
0.0
 40
0.0
 40
0.0
 40
0.0
 40
5.157331242127223
 40
11.03348381863801
 40
14.61916662718449
 40
16.78242660352418
 40
17.8917438422133
 40
18.52503597702182
 40
18.52503597702182
 40
18.52503597702182
 40
18.52503597702182
 10
17.85320735389541
 20
523.0000001114849
 30
0.0
 10
17.94222313459093
 20
524.7169780778866
 30
0.0
 10
18.13266158614605
 20
528.3902439046979
 30
0.0
 10
18.26144551568541
 20
533.2602549082195
 30
0.0
 10
18.28256830301544
 20
537.1399900125473
 30
0.0
 10
18.03705301970248
 20
539.4167616270013
 30
0.0
 10
17.75895604909349
 20
540.6932364663028
 30
0.0
 10
17.55513915742302
 20
541.2376587941429
 30
0.0
 10
17.48106883713262
 20
541.4355105809395
 30
0.0
 11
17.85320735389541
 21
523.0000001114849
 31
0.0
 11
18.09988263614286
 21
528.151428733348
 31
0.0
 11
18.25610594289173
 21
534.0255042674948
 31
0.0
 11
18.20102837279409
 21
537.6107640439654
 31
0.0
 11
17.94870062934569
 21
539.7592575708626
 31
0.0
 11
17.69274797655089
 21
540.8386430328642
 31
0.0
 11
17.48106883713262
 21
541.4355105809395
 31
0.0
  0
SPLINE
  5
128B
100
AcDbEntity
  8
VHH-025
100
AcDbSpline
210
0.0
220
0.0
230
1.0
 70
     8
 71
     3
 72
    13
 73
     9
 74
     7
 42
0.0000001
 43
0.0000001
 44
0.0000000001
 40
0.0
 40
0.0
 40
0.0
 40
0.0
 40
4.583810445733776
 40
8.698219770199068
 40
10.9693245760285
 40
14.68697053473742
 40
16.50338991512455
 40
17.39425123552251
 40
17.39425123552251
 40
17.39425123552251
 40
17.39425123552251
 10
17.82829499464787
 20
521.5009829301298
 30
0.0
 10
17.82261736310756
 20
519.9730920281565
 30
0.0
 10
17.81184351294588
 20
517.0737725629241
 30
0.0
 10
17.74736124270128
 20
513.4172104798526
 30
0.0
 10
17.60191558285417
 20
510.0531749913653
 30
0.0
 10
17.47438457240326
 20
507.4517484158811
 30
0.0
 10
17.10898357056073
 20
505.3342862591148
 30
0.0
 10
16.84640189497981
 20
504.4704923239788
 30
0.0
 10
16.75999642614442
 20
504.1862511644331
 30
0.0
 11
17.82829499464787
 21
521.5009829301298
 31
0.0
 11
17.80005427615469
 21
516.9172594803308
 31
0.0
 11
17.7139447807931
 21
512.8037513371451
 31
0.0
 11
17.62106641818718
 21
510.5345464876831
 31
0.0
 11
17.34209164072308
 21
506.827382538268
 31
0.0
 11
17.00745216611903
 21
505.0420546167133
 31
0.0
 11
16.75999642614442
 21
504.1862511644331
 31
0.0
  0
SPLINE
  5
128C
100
AcDbEntity
  8
VHH-025
100
AcDbSpline
210
0.0
220
0.0
230
-1.0
 70
     8
 71
     3
 72
    17
 73
    13
 74
    11
 42
0.0000001
 43
0.0000001
 44
0.0000000001
 40
0.0
 40
0.0
 40
0.0
 40
0.0
 40
0.5545798661040321
 40
1.653562178450582
 40
2.750923934510971
 40
3.848571212511795
 40
4.674193321130793
 40
5.488636099266511
 40
8.524172564827093
 40
12.84394436806091
 40
16.51294489443596
 40
20.18194542081128
 40
20.18194542081128
 40
20.18194542081128
 40
20.18194542081128
 10
17.20876980517823
 20
541.88535749845
 30
0.0
 10
17.18085999974351
 20
541.7026698175616
 30
0.0
 10
17.09764277262169
 20
541.1579593835025
 30
0.0
 10
16.86331143921181
 20
540.264623735308
 30
0.0
 10
16.33197633941512
 20
539.291048118891
 30
0.0
 10
15.66296284892818
 20
538.5299702545469
 30
0.0
 10
14.94545764558815
 20
537.9564970038745
 30
0.0
 10
14.07223185522624
 20
536.644309140393
 30
0.0
 10
13.25777749443336
 20
534.0215989233565
 30
0.0
 10
12.20542450138387
 20
530.4990277768243
 30
0.0
 10
11.77567229797927
 20
526.6252619162189
 30
0.0
 10
11.4064305965609
 20
524.2084207388923
 30
0.0
 10
11.22180974585171
 20
523.0000001502289
 30
0.0
 11
17.20876980517823
 21
541.88535749845
 31
0.0
 11
17.11855711398675
 21
541.3381642069744
 31
0.0
 11
16.8213144062156
 21
540.2801429900192
 31
0.0
 11
16.29900871058271
 21
539.3150525362411
 31
0.0
 11
15.57728009889979
 21
538.4880474830638
 31
0.0
 11
14.97383253238149
 21
537.9245735256322
 31
0.0
 11
14.50204981064962
 21
537.2606924351252
 31
0.0
 11
13.39110893292854
 21
534.4357513738009
 31
0.0
 11
12.28016805520746
 21
530.261276700477
 31
0.0
 11
11.7509889005305
 21
526.630638425353
 31
0.0
 11
11.22180974585171
 21
523.0000001502289
 31
0.0
  0
SPLINE
  5
128D
100
AcDbEntity
  8
VHH-025
100
AcDbSpline
210
0.0
220
0.0
230
-1.0
 70
     8
 71
     3
 72
    17
 73
    13
 74
    11
 42
0.0000001
 43
0.0000001
 44
0.0000000001
 40
0.0
 40
0.0
 40
0.0
 40
0.0
 40
3.506197438003876
 40
7.012394876008018
 40
10.46871649040359
 40
12.72673424276971
 40
14.1976802567633
 40
14.74421543556577
 40
16.1367507362756
 40
17.24703645469974
 40
18.36080100071182
 40
19.47142540553399
 40
19.47142540553399
 40
19.47142540553399
 40
19.47142540553399
 10
11.20440821785632
 20
521.4885683703691
 30
0.0
 10
11.33734446820024
 20
520.3282953011316
 30
0.0
 10
11.60321696888809
 20
518.0077491626565
 30
0.0
 10
11.75828582932229
 20
514.5015033944238
 30
0.0
 10
12.74085906011581
 20
511.5599829006959
 30
0.0
 10
13.30588068091971
 20
509.2512031281686
 30
0.0
 10
13.62627220221483
 20
507.8311775579576
 30
0.0
 10
14.29729886289208
 20
506.9000543460872
 30
0.0
 10
15.11712325634433
 20
506.2717188546653
 30
0.0
 10
15.73557182218467
 20
505.2176678954968
 30
0.0
 10
16.12206736041981
 20
504.1642018239228
 30
0.0
 10
16.16926237468216
 20
503.42049142283
 30
0.0
 10
16.19282656951691
 20
503.0491611654738
 30
0.0
 11
11.20440821785632
 21
521.4885683703691
 31
0.0
 11
11.56271678552002
 21
518.0007272838797
 31
0.0
 11
11.9210253531819
 21
514.5128861973899
 31
0.0
 11
12.81017025551773
 21
511.1728891248181
 31
0.0
 11
13.36271472497355
 21
508.983519631271
 31
0.0
 11
13.82621857454251
 21
507.5875087582767
 31
0.0
 11
14.14192404667119
 21
507.1413801260005
 31
0.0
 11
15.11719495432407
 21
506.1473976209185
 31
0.0
 11
15.70443562037144
 21
505.205122301982
 31
0.0
 11
16.0696285012018
 21
504.152931433487
 31
0.0
 11
16.19282656951691
 21
503.0491611654738
 31
0.0
  0
SPLINE
  5
128E
100
AcDbEntity
  8
VHH-025
100
AcDbSpline
210
0.0
220
0.0
230
1.0
 70
     8
 71
     3
 72
    12
 73
     8
 74
     6
 42
0.0000001
 43
0.0000001
 44
0.0000000001
 40
0.0
 40
0.0
 40
0.0
 40
0.0
 40
0.2800064370831081
 40
0.4549869708034157
 40
0.6605144582116726
 40
0.8644346373830195
 40
1.061580118984807
 40
1.061580118984807
 40
1.061580118984807
 40
1.061580118984807
 10
11.94406873388288
 20
522.0000000000005
 30
0.0
 10
11.85035263630738
 20
522.0006450227604
 30
0.0
 10
11.69807183949577
 20
522.0016931306352
 30
0.0
 10
11.48175586192983
 20
521.9673691095024
 30
0.0
 10
11.29094914613996
 20
521.8877935067776
 30
0.0
 10
11.20426360389798
 20
521.6878236503908
 30
0.0
 10
11.20436055911772
 20
521.5542346132036
 30
0.0
 10
11.20440821785632
 20
521.4885683703691
 30
0.0
 11
11.94406873388288
 21
522.0000000000005
 31
0.0
 11
11.66416053742977
 21
521.9925833723068
 31
0.0
 11
11.49184128619708
 21
521.9621816809781
 31
0.0
 11
11.30936369340452
 21
521.8676117269283
 31
0.0
 11
11.21813731551992
 21
521.6852352277533
 31
0.0
 11
11.20440821785632
 21
521.4885683703691
 31
0.0
  0
LINE
  5
128F
100
AcDbEntity
  8
VHH-025
100
AcDbLine
 10
13.33688
 20
523.0
 30
0.0
 11
13.196105
 21
522.0
 31
0.0
  0
SPLINE
  5
1290
100
AcDbEntity
  8
VHH-025
100
AcDbSpline
210
0.0
220
0.0
230
1.0
 70
     8
 71
     3
 72
    12
 73
     8
 74
     6
 42
0.0000001
 43
0.0000001
 44
0.0000000001
 40
0.0
 40
0.0
 40
0.0
 40
0.0
 40
0.4301022247144745
 40
0.8434719887055758
 40
1.254524939527523
 40
1.659116521511163
 40
1.863361491889003
 40
1.863361491889003
 40
1.863361491889003
 40
1.863361491889003
 10
56.64378050962477
 20
556.9033544413387
 30
0.0
 10
56.7863023783626
 20
556.9217674132383
 30
0.0
 10
57.0658015233348
 20
556.9578770288922
 30
0.0
 10
57.45824668875445
 20
557.1250705673635
 30
0.0
 10
57.75414393713256
 20
557.4260807858604
 30
0.0
 10
57.87828400993227
 20
557.7503294105005
 30
0.0
 10
57.91331759967272
 20
557.9501079148761
 30
0.0
 10
57.92507023586222
 20
558.0171271412186
 30
0.0
 11
56.64378050962477
 21
556.9033544413387
 31
0.0
 11
57.06727916236559
 21
556.9784331655624
 31
0.0
 11
57.4440350640034
 21
557.1485200620686
 31
0.0
 11
57.73103975096637
 21
557.4427866725441
 31
0.0
 11
57.88541505556167
 21
557.8167687757832
 31
0.0
 11
57.92507023586222
 21
558.0171271412186
 31
0.0
  0
ELLIPSE
  5
1291
100
AcDbEntity
  8
VHH-025
100
AcDbEllipse
 10
50.878282
 20
563.452897
 30
0.0
 11
-0.5847090253523675
 21
-3.845560362166452
 31
0.0
210
0.0
220
0.0
230
1.0
 40
0.934504
 41
0.0
 42
6.283185307179586
  0
SPLINE
  5
1292
100
AcDbEntity
  8
VHH-025
100
AcDbSpline
210
0.0
220
0.0
230
-1.0
 70
     8
 71
     3
 72
    14
 73
    10
 74
     8
 42
0.0000001
 43
0.0000001
 44
0.0000000001
 40
0.0
 40
0.0
 40
0.0
 40
0.0
 40
0.2461636398491298
 40
0.4473543715030857
 40
0.8348519280356871
 40
1.027990166881787
 40
1.250840234265399
 40
1.448371555080335
 40
1.702783789880175
 40
1.702783789880175
 40
1.702783789880175
 40
1.702783789880175
 10
43.96439260813713
 20
557.4545248284598
 30
0.0
 10
43.96421650213753
 20
557.3722304303876
 30
0.0
 10
43.96389646385398
 20
557.2226764233443
 30
0.0
 10
44.02529031169043
 20
556.9491511673838
 30
0.0
 10
44.12852057565911
 20
556.7103981620155
 30
0.0
 10
44.26327279639954
 20
556.4727114014284
 30
0.0
 10
44.44296686084929
 20
556.3639873895168
 30
0.0
 10
44.64874266240619
 20
556.2698163598694
 30
0.0
 10
44.80070198889516
 20
556.2596876389555
 30
0.0
 10
44.8862443345497
 20
556.2539858859572
 30
0.0
 11
43.96439260813713
 21
557.4545248284598
 31
0.0
 11
43.97392239204418
 21
557.208545722025
 31
0.0
 11
44.01561188816231
 21
557.011721698042
 31
0.0
 11
44.1634082079745
 21
556.6535170021365
 31
0.0
 11
44.26951503166856
 21
556.4921363302142
 31
0.0
 11
44.45180670242189
 21
556.3639493601008
 31
0.0
 11
44.63409837317704
 21
556.2878680254898
 31
0.0
 11
44.8862443345497
 21
556.2539858859572
 31
0.0
  0
SPLINE
  5
1293
100
AcDbEntity
  8
VHH-025
100
AcDbSpline
210
0.0
220
0.0
230
1.0
 70
     8
 71
     3
 72
    12
 73
     8
 74
     6
 42
0.0000001
 43
0.0000001
 44
0.0000000001
 40
0.0
 40
0.0
 40
0.0
 40
0.0
 40
0.6333227639766334
 40
1.258591262609214
 40
1.575282577617327
 40
2.212493335718675
 40
2.538190609334955
 40
2.538190609334955
 40
2.538190609334955
 40
2.538190609334955
 10
42.63642729391722
 20
553.141991323112
 30
0.0
 10
42.66227530032558
 20
552.9295174019109
 30
0.0
 10
42.71364259181081
 20
552.5072716909293
 30
0.0
 10
43.04327432202782
 20
552.0669763418809
 30
0.0
 10
43.46663412518338
 20
551.7539308137656
 30
0.0
 10
43.88452151199508
 20
551.6053710274957
 30
0.0
 10
44.2060838274991
 20
551.6065737614112
 30
0.0
 10
44.31485015409271
 20
551.606980578204
 30
0.0
 11
42.63642729391722
 21
553.141991323112
 31
0.0
 11
42.76765081200937
 21
552.5224123437474
 31
0.0
 11
43.13226538727394
 21
552.0144586973515
 31
0.0
 11
43.38685538104255
 21
551.8261044458081
 31
0.0
 11
43.98936335479993
 21
551.6186877352979
 31
0.0
 11
44.31485015409271
 21
551.606980578204
 31
0.0
  0
LINE
  5
1294
100
AcDbEntity
  8
VHH-025
100
AcDbLine
 10
56.643781
 20
556.903354
 30
0.0
 11
44.886244
 21
556.253986
 31
0.0
  0
LINE
  5
1295
100
AcDbEntity
  8
VHH-025
100
AcDbLine
 10
44.171455
 20
556.638215
 30
0.0
 11
45.88397
 21
553.417621
 31
0.0
  0
LINE
  5
1296
100
AcDbEntity
  8
VHH-025
100
AcDbLine
 10
44.474314
 20
553.870754
 30
0.0
 11
44.481199
 21
556.055703
 31
0.0
  0
LINE
  5
1297
100
AcDbEntity
  8
VHH-025
100
AcDbLine
 10
57.984907
 20
556.492136
 30
0.0
 11
59.21569
 21
554.13829
 31
0.0
  0
ARC
  5
1298
100
AcDbEntity
  8
VHH-025
100
AcDbCircle
 10
59.101692
 20
554.632858
 30
0.0
 40
0.5
100
AcDbArc
 50
273.09421
 51
359.745727
  0
LINE
  5
1299
100
AcDbEntity
  8
VHH-025
100
AcDbLine
 10
59.128681
 20
554.133586
 30
0.0
 11
45.0013
 21
553.369907
 31
0.0
  0
LINE
  5
129A
100
AcDbEntity
  8
VHH-025
100
AcDbLine
 10
66.604641
 20
552.753206
 30
0.0
 11
44.31485
 21
551.606981
 31
0.0
  0
SPLINE
  5
129B
100
AcDbEntity
  8
VHH-025
100
AcDbSpline
210
0.0
220
0.0
230
1.0
 70
     8
 71
     3
 72
    13
 73
     9
 74
     0
 42
0.0000001
 43
0.0000001
 40
84.6955679326532
 40
84.6955679326532
 40
84.6955679326532
 40
84.6955679326532
 40
85.81548028374967
 40
86.6565862794542
 40
87.78626872105837
 40
90.14984869879972
 40
105.9639654671869
 40
122.7164926965437
 40
122.7164926965437
 40
122.7164926965437
 40
122.7164926965437
 10
85.89282627612192
 20
558.3965874588534
 30
0.0
 10
85.93396274186671
 20
558.0189825823031
 30
0.0
 10
86.01102215423635
 20
557.3572200834919
 30
0.0
 10
86.61443687505743
 20
556.4939072621286
 30
0.0
 10
87.79524297589523
 20
555.5768441575296
 30
0.0
 10
94.53181837152078
 20
555.7075542287343
 30
0.0
 10
105.8662601888263
 20
555.8663416266072
 30
0.0
 10
116.7798755844778
 20
556.0371169104127
 30
0.0
 10
122.3939216341423
 20
556.1249650040713
 30
0.0
  0
LINE
  5
129C
100
AcDbEntity
  8
VHH-025
100
AcDbLine
 10
106.212425
 20
551.255023
 30
0.0
 11
103.814229
 21
539.705033
 31
0.0
  0
LINE
  5
129D
100
AcDbEntity
  8
VHH-025
100
AcDbLine
 10
99.139596
 20
551.255023
 30
0.0
 11
96.7414
 21
539.705033
 31
0.0
  0
LINE
  5
129E
100
AcDbEntity
  8
VHH-025
100
AcDbLine
 10
101.104271
 20
551.255023
 30
0.0
 11
98.706075
 21
539.705033
 31
0.0
  0
LINE
  5
129F
100
AcDbEntity
  8
VHH-025
100
AcDbLine
 10
103.461881
 20
551.255023
 30
0.0
 11
101.063685
 21
539.705033
 31
0.0
  0
ARC
  5
12A0
100
AcDbEntity
  8
VHH-025
100
AcDbCircle
 10
102.391738
 20
573.551541
 30
0.0
 40
0.25
100
AcDbArc
 50
225.0
 51
315.0
  0
SPLINE
  5
12A1
100
AcDbEntity
  8
VHH-025
100
AcDbSpline
210
0.0
220
0.0
230
1.0
 70
     8
 71
     3
 72
    20
 73
    16
 74
     0
 42
0.0000001
 43
0.0000001
 40
3.141592653589793
 40
3.141592653589793
 40
3.141592653589793
 40
3.141592653589793
 40
3.566852563487359
 40
3.566852563487359
 40
4.097334864786621
 40
4.097334864786621
 40
4.627817166085884
 40
4.627817166085884
 40
5.158299467385146
 40
5.158299467385146
 40
5.688781768684408
 40
5.688781768684408
 40
6.21926406998367
 40
6.21926406998367
 40
6.283185307179586
 40
6.283185307179586
 40
6.283185307179586
 40
6.283185307179586
 10
143.7917384281208
 20
574.7015412051118
 30
0.0
 10
143.7917384281208
 20
574.6079094179326
 30
0.0
 10
143.8148001891095
 20
574.5140398747353
 30
0.0
 10
143.9188946685171
 20
574.3155401953499
 30
0.0
 10
144.013984812107
 20
574.2142549173441
 30
0.0
 10
144.2605067054537
 20
574.063844031728
 30
0.0
 10
144.4114058337036
 20
574.0156663583693
 30
0.0
 10
144.72274399046
 20
573.9928720686584
 30
0.0
 10
144.8822965658837
 20
574.0183587110904
 30
0.0
 10
145.1591968695793
 20
574.1326732638571
 30
0.0
 10
145.2757745374528
 20
574.2208567932843
 30
0.0
 10
145.4366256148023
 20
574.4263696046273
 30
0.0
 10
145.4815289713405
 20
574.5426684718827
 30
0.0
 10
145.4912176546131
 20
574.6733934097615
 30
0.0
 10
145.4917384281216
 20
574.6874673186766
 30
0.0
 10
145.4917384281216
 20
574.7015412051118
 30
0.0
  0
SPLINE
  5
12A2
100
AcDbEntity
  8
VHH-025
100
AcDbSpline
210
0.0
220
0.0
230
1.0
 70
    11
 71
     3
 72
    15
 73
    11
 74
     9
 42
0.0000001
 43
0.0000001
 44
0.0000000001
 40
0.0
 40
0.0
 40
0.0
 40
0.0
 40
0.5147647394074232
 40
2.457789820816341
 40
3.944434646997668
 40
5.591791425460699
 40
7.104516291264413
 40
9.337163693808218
 40
10.73578930127891
 40
12.20445453441584
 40
12.20445453441584
 40
12.20445453441584
 40
12.20445453441584
 10
133.9563271827792
 20
549.170136967758
 30
0.0
 10
134.0206280742055
 20
549.3285136722415
 30
0.0
 10
134.3276383729277
 20
550.0846972690091
 30
0.0
 10
135.5808662587985
 20
551.0489547029701
 30
0.0
 10
137.4189753920325
 20
550.3234165821636
 30
0.0
 10
137.7520242067588
 20
548.5934052727257
 30
0.0
 10
136.9907101932616
 20
546.8944137153991
 30
0.0
 10
134.901814013361
 20
546.1536387965365
 30
0.0
 10
133.6137639625003
 20
547.702261213843
 30
0.0
 10
133.8402949437024
 20
548.6729414128044
 30
0.0
 10
133.9563271827792
 20
549.170136967758
 30
0.0
 11
133.9563271827792
 21
549.170136967758
 31
0.0
 11
134.1700170801414
 21
549.638452422022
 31
0.0
 11
135.7746589182206
 21
550.7341125146008
 31
0.0
 11
137.15601983347
 21
550.1846083189543
 31
0.0
 11
137.5788862292993
 21
548.5924499201678
 31
0.0
 11
136.9304907112473
 21
547.2257313054592
 31
0.0
 11
134.7738737925264
 21
546.6480480964487
 31
0.0
 11
133.8576585459759
 21
547.7047898869828
 31
0.0
 11
133.9563271827792
 21
549.170136967758
 31
0.0
  0
SPLINE
  5
12A3
100
AcDbEntity
  8
VHH-025
100
AcDbSpline
210
0.0
220
0.0
230
1.0
 70
     8
 71
     3
 72
    12
 73
     8
 74
     0
 42
0.0000001
 43
0.0000001
 40
1.820596868471746
 40
1.820596868471746
 40
1.820596868471746
 40
1.820596868471746
 40
4.503295473557569
 40
6.216955522489968
 40
7.774552440697402
 40
9.232972112989187
 40
10.8164521343443
 40
10.8164521343443
 40
10.8164521343443
 40
10.8164521343443
 10
140.8552435715828
 20
548.4333369542232
 30
0.0
 10
141.3180640375903
 20
548.4479974493219
 30
0.0
 10
142.0300491668021
 20
548.5817068106935
 30
0.0
 10
142.7391405727721
 20
549.364923090603
 30
0.0
 10
142.7925741030885
 20
550.2671833980129
 30
0.0
 10
142.0707351622113
 20
550.7518270163973
 30
0.0
 10
141.5614770625725
 20
550.753929081346
 30
0.0
 10
141.2963795551877
 20
550.7550233244788
 30
0.0
  0
SPLINE
  5
12A4
100
AcDbEntity
  8
VHH-025
100
AcDbSpline
210
0.0
220
0.0
230
1.0
 70
     8
 71
     3
 72
    12
 73
     8
 74
     0
 42
0.0000001
 43
0.0000001
 40
0.3004138362153372
 40
0.3004138362153372
 40
0.3004138362153372
 40
0.3004138362153372
 40
0.6531836346659445
 40
2.201425060069765
 40
3.775834883110177
 40
5.170639203720888
 40
5.549375987942882
 40
5.549375987942882
 40
5.549375987942882
 40
5.549375987942882
 10
142.0735002027468
 20
546.557122045745
 30
0.0
 10
142.063585913962
 20
546.6152425106729
 30
0.0
 10
142.0163752668668
 20
546.9276352444977
 30
0.0
 10
142.0632072367479
 20
547.481448833927
 30
0.0
 10
141.9212769342011
 20
548.3627740513156
 30
0.0
 10
141.2851406312147
 20
548.4342724435164
 30
0.0
 10
140.976717682035
 20
548.4320828407931
 30
0.0
 10
140.8552435715828
 20
548.4333369542232
 30
0.0
  0
SPLINE
  5
12A5
100
AcDbEntity
  8
VHH-025
100
AcDbSpline
210
0.0
220
0.0
230
1.0
 70
    11
 71
     3
 72
    15
 73
    11
 74
     9
 42
0.0000001
 43
0.0000001
 44
0.0000000001
 40
0.0
 40
0.0
 40
0.0
 40
0.0
 40
0.5147647394074232
 40
2.457789820816341
 40
3.944434646997668
 40
5.591791425460232
 40
7.104516291263946
 40
9.337163693807749
 40
10.73578930127845
 40
12.2044545344155
 40
12.2044545344155
 40
12.2044545344155
 40
12.2044545344155
 10
111.9457297939188
 20
542.8242162485226
 30
0.0
 10
112.0100306853452
 20
542.9825929530061
 30
0.0
 10
112.3170409840674
 20
543.7387765497735
 30
0.0
 10
113.5702688699379
 20
544.7030339837347
 30
0.0
 10
115.4083780031726
 20
543.9774958629284
 30
0.0
 10
115.7414268178961
 20
542.2474845534899
 30
0.0
 10
114.9801128043996
 20
540.5484929961636
 30
0.0
 10
112.8912166244991
 20
539.8077180773011
 30
0.0
 10
111.6031665736378
 20
541.3563404946075
 30
0.0
 10
111.8296975548413
 20
542.327020693569
 30
0.0
 10
111.9457297939188
 20
542.8242162485226
 30
0.0
 11
111.9457297939188
 21
542.8242162485226
 31
0.0
 11
112.159419691281
 21
543.2925317027866
 31
0.0
 11
113.7640615293603
 21
544.3881917953653
 31
0.0
 11
115.1454224446097
 21
543.8386875997188
 31
0.0
 11
115.5682888404371
 21
542.2465292009324
 31
0.0
 11
114.9198933223851
 21
540.8798105862238
 31
0.0
 11
112.7632764036643
 21
540.3021273772132
 31
0.0
 11
111.8470611571137
 21
541.3588691677473
 31
0.0
 11
111.9457297939188
 21
542.8242162485226
 31
0.0
  0
SPLINE
  5
12A6
100
AcDbEntity
  8
VHH-025
100
AcDbSpline
210
0.0
220
0.0
230
1.0
 70
     8
 71
     3
 72
    12
 73
     8
 74
     0
 42
0.0000001
 43
0.0000001
 40
1.820596868471746
 40
1.820596868471746
 40
1.820596868471746
 40
1.820596868471746
 40
4.503295473557569
 40
6.216955522489968
 40
7.774552440697402
 40
9.232972112989187
 40
10.8164521343443
 40
10.8164521343443
 40
10.8164521343443
 40
10.8164521343443
 10
114.785847320727
 20
548.4333369542232
 30
0.0
 10
115.2486677867345
 20
548.4479974493219
 30
0.0
 10
115.9606529159464
 20
548.5817068106935
 30
0.0
 10
116.6697443219163
 20
549.364923090603
 30
0.0
 10
116.7231778522327
 20
550.2671833980129
 30
0.0
 10
116.0013389113555
 20
550.7518270163973
 30
0.0
 10
115.4920808117167
 20
550.753929081346
 30
0.0
 10
115.2269833043319
 20
550.7550233244788
 30
0.0
  0
SPLINE
  5
12A7
100
AcDbEntity
  8
VHH-025
100
AcDbSpline
210
0.0
220
0.0
230
1.0
 70
     8
 71
     3
 72
    12
 73
     8
 74
     0
 42
0.0000001
 43
0.0000001
 40
0.3004138362153372
 40
0.3004138362153372
 40
0.3004138362153372
 40
0.3004138362153372
 40
0.6531836346659445
 40
2.201425060069765
 40
3.775834883110177
 40
5.170639203720888
 40
5.549375987942882
 40
5.549375987942882
 40
5.549375987942882
 40
5.549375987942882
 10
116.004103951891
 20
546.557122045745
 30
0.0
 10
115.9941896631062
 20
546.6152425106729
 30
0.0
 10
115.946979016011
 20
546.9276352444977
 30
0.0
 10
115.9938109858922
 20
547.481448833927
 30
0.0
 10
115.8518806833453
 20
548.3627740513156
 30
0.0
 10
115.2157443803589
 20
548.4342724435164
 30
0.0
 10
114.9073214311792
 20
548.4320828407931
 30
0.0
 10
114.785847320727
 20
548.4333369542232
 30
0.0
  0
SPLINE
  5
12A8
100
AcDbEntity
  8
VHH-025
100
AcDbSpline
210
0.0
220
0.0
230
1.0
 70
     8
 71
     3
 72
    12
 73
     8
 74
     6
 42
0.0000001
 43
0.0000001
 44
0.0000000001
 40
0.0
 40
0.0
 40
0.0
 40
0.0
 40
1.006217164968555
 40
1.679832645747035
 40
2.564456909786038
 40
3.472698377669788
 40
4.209033191013136
 40
4.209033191013136
 40
4.209033191013136
 40
4.209033191013136
 10
108.5829504867124
 20
542.5082166641555
 30
0.0
 10
108.9358022314337
 20
542.4994300335586
 30
0.0
 10
109.5248717688336
 20
542.4847611634215
 30
0.0
 10
110.1183911618125
 20
541.7352203537969
 30
0.0
 10
109.9172286863236
 20
540.8334711668569
 30
0.0
 10
109.2097815641444
 20
540.2616863917047
 30
0.0
 10
108.6546259396633
 20
540.2225537599328
 30
0.0
 10
108.4060631835327
 20
540.2050327002894
 30
0.0
 11
108.5829504867124
 21
542.5082166641555
 31
0.0
 11
109.56964252145
 21
542.3109558934416
 31
0.0
 11
109.9784101596196
 21
541.7755431237678
 31
0.0
 11
109.8326638202415
 21
540.9030076843245
 31
0.0
 11
109.1326773679611
 21
540.3242836303856
 31
0.0
 11
108.4060631835327
 21
540.2050327002894
 31
0.0
  0
SPLINE
  5
12A9
100
AcDbEntity
  8
VHH-025
100
AcDbSpline
210
0.0
220
0.0
230
-1.0
 70
     8
 71
     3
 72
    12
 73
     8
 74
     6
 42
0.0000001
 43
0.0000001
 44
0.0000000001
 40
0.0
 40
0.0
 40
0.0
 40
0.0
 40
1.411106911324726
 40
2.125038086019199
 40
2.805834388314815
 40
3.535044224462143
 40
4.326784235138798
 40
4.326784235138798
 40
4.326784235138798
 40
4.326784235138798
 10
108.1663797981818
 20
542.5082166641555
 30
0.0
 10
108.6425691374078
 20
542.5172704845924
 30
0.0
 10
109.3596802746934
 20
542.5309049676343
 30
0.0
 10
110.205322022056
 20
543.1087114544616
 30
0.0
 10
110.2059199337329
 20
543.9470776302656
 30
0.0
 10
109.5151090892595
 20
544.3965319568326
 30
0.0
 10
109.0058122028598
 20
544.4007422726427
 30
0.0
 10
108.740694504786
 20
544.4029339790236
 30
0.0
 11
108.1663797981818
 21
542.5082166641555
 31
0.0
 11
109.5611481332944
 21
542.7223287996262
 31
0.0
 11
110.1052706450391
 21
543.1845283392335
 31
0.0
 11
110.1026789588795
 21
543.8653197084372
 31
0.0
 11
109.5273519151742
 21
544.3133663331487
 31
0.0
 11
108.740694504786
 21
544.4029339790236
 31
0.0
  0
SPLINE
  5
12AA
100
AcDbEntity
  8
VHH-025
100
AcDbSpline
210
0.0
220
0.0
230
-1.0
 70
     8
 71
     3
 72
    12
 73
     8
 74
     6
 42
0.0000001
 43
0.0000001
 44
0.0000000001
 40
0.0
 40
0.0
 40
0.0
 40
0.0
 40
1.411106911326524
 40
2.125038086022383
 40
2.805834388318013
 40
3.53504422446247
 40
4.326784235140932
 40
4.326784235140932
 40
4.326784235140932
 40
4.326784235140932
 10
109.4853039144254
 20
548.8603060096107
 30
0.0
 10
109.9614932536515
 20
548.8693598300478
 30
0.0
 10
110.6786043909373
 20
548.8829943130897
 30
0.0
 10
111.5242461383048
 20
549.4608007999163
 30
0.0
 10
111.5248440499748
 20
550.2991669757191
 30
0.0
 10
110.8340332055062
 20
550.7486213022889
 30
0.0
 10
110.3247363191062
 20
550.7528316180983
 30
0.0
 10
110.0596186210313
 20
550.7550233244788
 30
0.0
 11
109.4853039144254
 21
548.8603060096107
 31
0.0
 11
110.8800722495398
 21
549.0744181450813
 31
0.0
 11
111.4241947612863
 21
549.5366176846887
 31
0.0
 11
111.4216030751231
 21
550.2174090538924
 31
0.0
 11
110.8462760314214
 21
550.6654556786038
 31
0.0
 11
110.0596186210313
 21
550.7550233244788
 31
0.0
  0
SPLINE
  5
12AB
100
AcDbEntity
  8
VHH-025
100
AcDbSpline
210
0.0
220
0.0
230
1.0
 70
     8
 71
     3
 72
    12
 73
     8
 74
     6
 42
0.0000001
 43
0.0000001
 44
0.0000000001
 40
0.0
 40
0.0
 40
0.0
 40
0.0
 40
1.006217164968555
 40
1.679832645748139
 40
2.564456909787441
 40
3.472698377671191
 40
4.209033191014539
 40
4.209033191014539
 40
4.209033191014539
 40
4.209033191014539
 10
109.9018746029578
 20
548.8603060096107
 30
0.0
 10
110.2547263476788
 20
548.8515193790135
 30
0.0
 10
110.8437958850785
 20
548.836850508876
 30
0.0
 10
111.4373152780607
 20
548.0873096992527
 30
0.0
 10
111.2361528025682
 20
547.1855605123122
 30
0.0
 10
110.52870568039
 20
546.61377573716
 30
0.0
 10
109.9735500559088
 20
546.5746431053879
 30
0.0
 10
109.7249872997781
 20
546.5571220457445
 30
0.0
 11
109.9018746029578
 21
548.8603060096107
 31
0.0
 11
110.8885666376954
 21
548.6630452388967
 31
0.0
 11
111.2973342758668
 21
548.127632469223
 31
0.0
 11
111.1515879364869
 21
547.2550970297797
 31
0.0
 11
110.4516014842065
 21
546.6763729758408
 31
0.0
 11
109.7249872997781
 21
546.5571220457445
 31
0.0
  0
ARC
  5
12AC
100
AcDbEntity
  8
VHH-025
100
AcDbCircle
 10
128.891738
 20
571.551541
 30
0.0
 40
0.75
100
AcDbArc
 50
270.0
 51
0.0
  0
LINE
  5
12AD
100
AcDbEntity
  8
VHH-025
100
AcDbLine
 10
129.224729
 20
544.402934
 30
0.0
 11
129.544494
 21
540.205033
 31
0.0
  0
LINE
  5
12AE
100
AcDbEntity
  8
VHH-025
100
AcDbLine
 10
128.322616
 20
544.402934
 30
0.0
 11
129.224729
 21
544.402934
 31
0.0
  0
LINE
  5
12AF
100
AcDbEntity
  8
VHH-025
100
AcDbLine
 10
128.448902
 20
550.755023
 30
0.0
 11
127.581594
 21
546.557122
 31
0.0
  0
LINE
  5
12B0
100
AcDbEntity
  8
VHH-025
100
AcDbLine
 10
128.322616
 20
544.402934
 30
0.0
 11
127.439624
 21
540.205033
 31
0.0
  0
CIRCLE
  5
12B1
100
AcDbEntity
  8
VHH-025
100
AcDbCircle
 10
127.724775
 20
573.154619
 30
0.0
 40
0.025
  0
LINE
  5
12B2
100
AcDbEntity
  8
VHH-025
100
AcDbLine
 10
108.249399
 20
548.860306
 30
0.0
 11
109.901875
 21
548.860306
 31
0.0
  0
LINE
  5
12B3
100
AcDbEntity
  8
VHH-025
100
AcDbLine
 10
108.64281
 20
550.755023
 30
0.0
 11
110.059619
 21
550.755023
 31
0.0
  0
LINE
  5
12B4
100
AcDbEntity
  8
VHH-025
100
AcDbLine
 10
106.930474
 20
542.508217
 30
0.0
 11
108.58295
 21
542.508217
 31
0.0
  0
LINE
  5
12B5
100
AcDbEntity
  8
VHH-025
100
AcDbLine
 10
106.45225
 20
540.205033
 30
0.0
 11
108.406063
 21
540.205033
 31
0.0
  0
LINE
  5
12B6
100
AcDbEntity
  8
VHH-025
100
AcDbLine
 10
107.323886
 20
544.402934
 30
0.0
 11
108.740695
 21
544.402934
 31
0.0
  0
LINE
  5
12B7
100
AcDbEntity
  8
VHH-025
100
AcDbLine
 10
107.323886
 20
544.402934
 30
0.0
 11
106.45225
 21
540.205033
 31
0.0
  0
LINE
  5
12B8
100
AcDbEntity
  8
VHH-025
100
AcDbLine
 10
108.64281
 20
550.755023
 30
0.0
 11
107.771174
 21
546.557122
 31
0.0
  0
LINE
  5
12B9
100
AcDbEntity
  8
VHH-025
100
AcDbLine
 10
107.771174
 20
546.557122
 30
0.0
 11
109.724987
 21
546.557122
 31
0.0
  0
LINE
  5
12BA
100
AcDbEntity
  8
VHH-025
100
AcDbLine
 10
123.615086
 20
546.557122
 30
0.0
 11
124.132885
 21
546.557122
 31
0.0
  0
LINE
  5
12BB
100
AcDbEntity
  8
VHH-025
100
AcDbLine
 10
123.248678
 20
550.755023
 30
0.0
 11
123.615086
 21
546.557122
 31
0.0
  0
LINE
  5
12BC
100
AcDbEntity
  8
VHH-025
100
AcDbLine
 10
118.68287
 20
547.358711
 30
0.0
 11
121.52066
 21
547.358711
 31
0.0
  0
LINE
  5
12BD
100
AcDbEntity
  8
VHH-025
100
AcDbLine
 10
118.216495
 20
546.557122
 30
0.0
 11
120.658893
 21
550.755023
 31
0.0
  0
LINE
  5
12BE
100
AcDbEntity
  8
VHH-025
100
AcDbLine
 10
120.658893
 20
550.755023
 30
0.0
 11
120.964143
 21
550.755023
 31
0.0
  0
LINE
  5
12BF
100
AcDbEntity
  8
VHH-025
100
AcDbLine
 10
120.964143
 20
550.755023
 30
0.0
 11
121.652007
 21
546.557122
 31
0.0
  0
LINE
  5
12C0
100
AcDbEntity
  8
VHH-025
100
AcDbLine
 10
124.82704
 20
544.402934
 30
0.0
 11
125.514904
 21
540.205033
 31
0.0
  0
LINE
  5
12C1
100
AcDbEntity
  8
VHH-025
100
AcDbLine
 10
122.079391
 20
540.205033
 30
0.0
 11
124.52179
 21
544.402934
 31
0.0
  0
LINE
  5
12C2
100
AcDbEntity
  8
VHH-025
100
AcDbLine
 10
122.545767
 20
541.006622
 30
0.0
 11
125.383557
 21
541.006622
 31
0.0
  0
LINE
  5
12C3
100
AcDbEntity
  8
VHH-025
100
AcDbLine
 10
119.832479
 20
540.205033
 30
0.0
 11
120.158713
 21
540.205033
 31
0.0
  0
LINE
  5
12C4
100
AcDbEntity
  8
VHH-025
100
AcDbLine
 10
117.847124
 20
544.402934
 30
0.0
 11
118.111548
 21
544.402934
 31
0.0
  0
LINE
  5
12C5
100
AcDbEntity
  8
VHH-025
100
AcDbLine
 10
124.52179
 20
544.402934
 30
0.0
 11
124.82704
 21
544.402934
 31
0.0
  0
LINE
  5
12C6
100
AcDbEntity
  8
VHH-025
100
AcDbLine
 10
121.03035
 20
544.402934
 30
0.0
 11
120.158713
 21
540.205033
 31
0.0
  0
LINE
  5
12C7
100
AcDbEntity
  8
VHH-025
100
AcDbLine
 10
118.111548
 20
544.402934
 30
0.0
 11
119.832479
 21
540.205033
 31
0.0
  0
LINE
  5
12C8
100
AcDbEntity
  8
VHH-025
100
AcDbLine
 10
113.268899
 20
548.433337
 30
0.0
 11
114.785847
 21
548.433337
 31
0.0
  0
LINE
  5
12C9
100
AcDbEntity
  8
VHH-025
100
AcDbLine
 10
112.879328
 20
546.557122
 30
0.0
 11
113.750965
 21
550.755023
 31
0.0
  0
LINE
  5
12CA
100
AcDbEntity
  8
VHH-025
100
AcDbLine
 10
113.750965
 20
550.755023
 30
0.0
 11
115.226983
 21
550.755023
 31
0.0
  0
LINE
  5
12CB
100
AcDbEntity
  8
VHH-025
100
AcDbLine
 10
117.847124
 20
544.402934
 30
0.0
 11
116.975487
 21
540.205033
 31
0.0
  0
CIRCLE
  5
12CC
100
AcDbEntity
  8
VHH-025
100
AcDbCircle
 10
121.524775
 20
573.154619
 30
0.0
 40
0.025
  0
ARC
  5
12CD
100
AcDbEntity
  8
VHH-025
100
AcDbCircle
 10
115.891738
 20
571.551541
 30
0.0
 40
0.75
100
AcDbArc
 50
180.0
 51
270.0
  0
LINE
  5
12CE
100
AcDbEntity
  8
VHH-025
100
AcDbLine
 10
117.242227
 20
573.154619
 30
0.0
 11
119.954284
 21
573.154619
 31
0.0
  0
LINE
  5
12CF
100
AcDbEntity
  8
VHH-025
100
AcDbLine
 10
126.258133
 20
550.755023
 30
0.0
 11
124.132885
 21
546.557122
 31
0.0
  0
LINE
  5
12D0
100
AcDbEntity
  8
VHH-025
100
AcDbLine
 10
123.442227
 20
573.154619
 30
0.0
 11
126.154284
 21
573.154619
 31
0.0
  0
LINE
  5
12D1
100
AcDbEntity
  8
VHH-025
100
AcDbLine
 10
115.891738
 20
570.801541
 30
0.0
 11
128.891738
 21
570.801541
 31
0.0
  0
CIRCLE
  5
12D2
100
AcDbEntity
  8
VHH-025
100
AcDbCircle
 10
145.43611
 20
550.261906
 30
0.0
 40
0.724411
  0
LINE
  5
12D3
100
AcDbEntity
  8
VHH-025
100
AcDbLine
 10
139.820361
 20
550.755023
 30
0.0
 11
141.29638
 21
550.755023
 31
0.0
  0
LINE
  5
12D4
100
AcDbEntity
  8
VHH-025
100
AcDbLine
 10
139.338295
 20
548.433337
 30
0.0
 11
140.855244
 21
548.433337
 31
0.0
  0
LINE
  5
12D5
100
AcDbEntity
  8
VHH-025
100
AcDbLine
 10
137.799142
 20
544.402934
 30
0.0
 11
142.314971
 21
544.402934
 31
0.0
  0
LINE
  5
12D6
100
AcDbEntity
  8
VHH-025
100
AcDbLine
 10
138.948725
 20
546.557122
 30
0.0
 11
139.820361
 21
550.755023
 31
0.0
  0
LINE
  5
12D7
100
AcDbEntity
  8
VHH-025
100
AcDbLine
 10
129.673652
 20
546.557122
 30
0.0
 11
132.8202
 21
546.557122
 31
0.0
  0
LINE
  5
12D8
100
AcDbEntity
  8
VHH-025
100
AcDbLine
 10
130.544411
 20
550.771731
 30
0.0
 11
129.673652
 21
546.557122
 31
0.0
  0
LINE
  5
12D9
100
AcDbEntity
  8
VHH-025
100
AcDbLine
 10
131.907895
 20
544.402934
 30
0.0
 11
132.817655
 21
544.402934
 31
0.0
  0
LINE
  5
12DA
100
AcDbEntity
  8
VHH-025
100
AcDbLine
 10
139.174103
 20
540.17532
 30
0.0
 11
140.051461
 21
544.402934
 31
0.0
  0
LINE
  5
12DB
100
AcDbEntity
  8
VHH-025
100
AcDbLine
 10
129.544494
 20
540.205033
 30
0.0
 11
129.679121
 21
540.205033
 31
0.0
  0
LINE
  5
12DC
100
AcDbEntity
  8
VHH-025
100
AcDbLine
 10
132.817655
 20
544.402934
 30
0.0
 11
131.934663
 21
540.205033
 31
0.0
  0
LINE
  5
12DD
100
AcDbEntity
  8
VHH-025
100
AcDbLine
 10
131.907895
 20
544.402934
 30
0.0
 11
129.679121
 21
540.205033
 31
0.0
  0
LINE
  5
12DE
100
AcDbEntity
  8
VHH-025
100
AcDbLine
 10
134.262929
 20
541.006622
 30
0.0
 11
137.100718
 21
541.006622
 31
0.0
  0
LINE
  5
12DF
100
AcDbEntity
  8
VHH-025
100
AcDbLine
 10
133.796553
 20
540.205033
 30
0.0
 11
136.238952
 21
544.402934
 31
0.0
  0
LINE
  5
12E0
100
AcDbEntity
  8
VHH-025
100
AcDbLine
 10
136.238952
 20
544.402934
 30
0.0
 11
136.544201
 21
544.402934
 31
0.0
  0
LINE
  5
12E1
100
AcDbEntity
  8
VHH-025
100
AcDbLine
 10
136.544201
 20
544.402934
 30
0.0
 11
137.232066
 21
540.205033
 31
0.0
  0
CIRCLE
  5
12E2
100
AcDbEntity
  8
VHH-025
100
AcDbCircle
 10
144.488133
 20
544.007773
 30
0.0
 40
0.724411
  0
SPLINE
  5
12E3
100
AcDbEntity
  8
VHH-025
100
AcDbSpline
210
0.0
220
0.0
230
1.0
 70
     8
 71
     3
 72
    13
 73
     9
 74
     0
 42
0.0000001
 43
0.0000001
 40
84.6955679326532
 40
84.6955679326532
 40
84.6955679326532
 40
84.6955679326532
 40
85.81548028374967
 40
86.6565862794542
 40
87.78626872105837
 40
90.14984869879972
 40
105.9639654671869
 40
122.7164926965437
 40
122.7164926965437
 40
122.7164926965437
 40
122.7164926965437
 10
158.8950169921608
 20
558.3965874588534
 30
0.0
 10
158.8538805264161
 20
558.0189825823031
 30
0.0
 10
158.7768211140464
 20
557.3572200834919
 30
0.0
 10
158.1734063932253
 20
556.4939072621286
 30
0.0
 10
156.9926002923875
 20
555.5768441575296
 30
0.0
 10
150.256024896762
 20
555.7075542287343
 30
0.0
 10
138.9215830794564
 20
555.8663416266072
 30
0.0
 10
128.0079676838067
 20
556.0371169104127
 30
0.0
 10
122.3939216341423
 20
556.1249650040713
 30
0.0
  0
SPLINE
  5
12E4
100
AcDbEntity
  8
VHH-025
100
AcDbSpline
210
0.0
220
0.0
230
1.0
 70
     8
 71
     3
 72
    13
 73
     9
 74
     7
 42
0.0000001
 43
0.0000001
 44
0.0000000001
 40
0.0
 40
0.0
 40
0.0
 40
0.0
 40
3.284478271109898
 40
5.848013776661412
 40
8.811210366642434
 40
13.31059109350569
 40
22.1995218064637
 40
44.1530854654974
 40
44.1530854654974
 40
44.1530854654974
 40
44.1530854654974
 10
162.3950169921609
 20
543.2177674662402
 30
0.0
 10
162.2468387613449
 20
542.1136587897742
 30
0.0
 10
161.9830074116797
 20
540.1477932190687
 30
0.0
 10
160.1848680579615
 20
537.7197369067357
 30
0.0
 10
157.3203667871943
 20
535.7983223500525
 30
0.0
 10
151.7129436358817
 20
535.6006041290059
 30
0.0
 10
140.0490772125571
 20
535.501795291409
 30
0.0
 10
129.7366889706918
 20
535.4672750274954
 30
0.0
 10
122.3963724251516
 20
535.442703642243
 30
0.0
 11
162.3950169921609
 21
543.2177674662402
 31
0.0
 11
161.6572508920835
 21
540.0172208418385
 31
0.0
 11
160.1693640624362
 21
537.9296607659639
 31
0.0
 11
157.6919282876479
 21
536.3039775210868
 31
0.0
 11
153.2377587863993
 21
535.667737802572
 31
0.0
 11
144.3497087265568
 21
535.542616447472
 31
0.0
 11
122.3963724251516
 21
535.442703642243
 31
0.0
  0
LWPOLYLINE
  5
12E5
100
AcDbEntity
  8
VHH-025
100
AcDbPolyline
 90
       11
 70
     0
 43
0.0
 10
222.713192
 20
521.508898
 10
222.678577
 20
488.970295
 10
222.66613
 20
472.101423
 10
222.664788
 20
469.982879
 10
222.663503
 20
467.862187
 10
222.662286
 20
465.739785
 10
222.661112
 20
463.615908
 10
222.65886
 20
459.364269
 10
222.656699
 20
455.107515
 10
222.64275
 20
421.039066
 10
222.634311
 20
388.001673
  0
LWPOLYLINE
  5
12E6
100
AcDbEntity
  8
VHH-025
100
AcDbPolyline
 90
       33
 70
     0
 43
0.0
 10
310.941617
 20
435.626999
 10
310.923024
 20
435.670375
 10
310.564668
 20
436.44084
 10
309.370802
 20
438.827528
 10
307.86323
 20
441.793
 10
306.434029
 20
444.667862
 10
305.854067
 20
445.890737
 10
305.284868
 20
447.101025
 10
304.126618
 20
449.571671
 10
302.949003
 20
452.098176
 10
301.757389
 20
454.674128
 10
300.554536
 20
457.298802
 10
299.343582
 20
459.970897
 10
298.130721
 20
462.682606
 10
296.92497
 20
465.419711
 10
295.735261
 20
468.167774
 10
294.567641
 20
470.918646
 10
293.425248
 20
473.671118
 10
292.311023
 20
476.425052
 10
291.230506
 20
479.17449
 10
290.192068
 20
481.906238
 10
289.204484
 20
484.605217
 10
288.274293
 20
487.261493
 10
287.405455
 20
489.872399
 10
286.601446
 20
492.437856
 10
285.867591
 20
494.953445
 10
285.211383
 20
497.407726
 10
284.640698
 20
499.786155
 10
284.161911
 20
502.077675
 10
283.779785
 20
504.277734
 10
283.499004
 20
506.385149
 10
283.325513
 20
508.396083
 10
283.281895
 20
509.339362
  0
LWPOLYLINE
  5
12E7
100
AcDbEntity
  8
VHH-025
100
AcDbPolyline
 90
       12
 70
     0
 43
0.0
 10
299.748355
 20
435.63091
 10
299.125867
 20
436.663965
 10
297.102907
 20
439.790193
 10
294.746616
 20
443.466693
 10
293.214894
 20
446.052495
 10
289.190662
 20
453.806151
 10
285.456683
 20
462.181044
 10
279.160867
 20
479.715364
 10
276.839859
 20
487.98122
 10
275.061981
 20
495.830641
 10
273.894329
 20
503.024183
 10
273.403998
 20
509.322402
  0
LWPOLYLINE
  5
12E8
100
AcDbEntity
  8
VHH-025
100
AcDbPolyline
 90
       43
 70
     0
 43
0.0
 10
320.003896
 20
435.626999
 10
319.989404
 20
435.670381
 10
319.710066
 20
436.440859
 10
318.778869
 20
438.827589
 10
317.601532
 20
441.7931
 10
316.482664
 20
444.667975
 10
316.02675
 20
445.890852
 10
315.577396
 20
447.10115
 10
315.25267
 20
447.974219
 10
314.65767
 20
449.571815
 10
314.25612
 20
450.649216
 10
313.716064
 20
452.098335
 10
313.237076
 20
453.384564
 10
312.757434
 20
454.674297
 10
312.201528
 20
456.172301
 10
311.784505
 20
457.298977
 10
311.153008
 20
459.011051
 10
310.800255
 20
459.971076
 10
309.810125
 20
462.682786
 10
308.821885
 20
465.419888
 10
307.843273
 20
468.167946
 10
306.879674
 20
470.918811
 10
305.934058
 20
473.671275
 10
305.009202
 20
476.425198
 10
304.110027
 20
479.174624
 10
303.243814
 20
481.906359
 10
302.418205
 20
484.605325
 10
301.638982
 20
487.261587
 10
301.370107
 20
488.208298
 10
300.909765
 20
489.872479
 10
300.610419
 20
490.988517
 10
300.233756
 20
492.437923
 10
299.916613
 20
493.704505
 10
299.615697
 20
494.953498
 10
299.29307
 20
496.35529
 10
299.06216
 20
497.407767
 10
298.745911
 20
498.934908
 10
298.580052
 20
499.786185
 10
298.175013
 20
502.077695
 10
297.851322
 20
504.277746
 10
297.613184
 20
506.385155
 10
297.465871
 20
508.396084
 10
297.428804
 20
509.339293
  0
LINE
  5
12E9
100
AcDbEntity
  8
VHH-025
100
AcDbLine
 10
255.492825
 20
511.7
 30
0.0
 11
255.492825
 21
397.499989
 31
0.0
  0
LINE
  5
12EA
100
AcDbEntity
  8
VHH-025
100
AcDbLine
 10
228.599918
 20
503.049161
 30
0.0
 11
228.599918
 21
406.706543
 31
0.0
  0
LINE
  5
12EB
100
AcDbEntity
  8
VHH-025
100
AcDbLine
 10
330.659596
 20
401.500191
 30
0.0
 11
255.492825
 21
401.500089
 31
0.0
  0
LINE
  5
12EC
100
AcDbEntity
  8
VHH-025
100
AcDbLine
 10
244.984581
 20
397.499982
 30
0.0
 11
329.032141
 21
397.500035
 31
0.0
  0
LINE
  5
12ED
100
AcDbEntity
  8
VHH-025
100
AcDbLine
 10
329.109408
 20
395.674345
 30
0.0
 11
248.028449
 21
395.604646
 31
0.0
  0
LINE
  5
12EE
100
AcDbEntity
  8
VHH-025
100
AcDbLine
 10
242.229405
 20
386.5
 30
0.0
 11
328.8375
 21
386.5
 31
0.0
  0
LINE
  5
12EF
100
AcDbEntity
  8
VHH-025
100
AcDbLine
 10
328.870574
 20
387.500032
 30
0.0
 11
241.168847
 21
387.499983
 31
0.0
  0
SPLINE
  5
12F0
100
AcDbEntity
  8
VHH-025
100
AcDbSpline
210
0.0
220
0.0
230
-1.0
 70
     8
 71
     3
 72
    11
 73
     7
 74
     5
 42
0.0000001
 43
0.0000001
 44
0.0000000001
 40
0.0
 40
0.0
 40
0.0
 40
0.0
 40
0.6345840196798191
 40
1.890391237942621
 40
2.537599161339098
 40
3.470784413748566
 40
3.470784413748566
 40
3.470784413748566
 40
3.470784413748566
 10
242.222494095361
 20
395.8837667532739
 30
0.0
 10
242.2595609464195
 20
396.0954931145665
 30
0.0
 10
242.3699810772233
 20
396.7262144151612
 30
0.0
 10
243.1424578822257
 20
397.310238163979
 30
0.0
 10
244.0725814508392
 20
397.4662294213548
 30
0.0
 10
244.6000853540181
 20
397.4874513729682
 30
0.0
 10
244.911564086381
 20
397.4999824396522
 30
0.0
 11
242.222494095361
 21
395.8837667532739
 31
0.0
 11
242.3860985711917
 21
396.496898430421
 31
0.0
 11
243.3472264959755
 21
397.3051588350195
 31
0.0
 11
243.9803420759062
 21
397.4394821708779
 31
0.0
 11
244.911564086381
 21
397.4999824396522
 31
0.0
  0
SPLINE
  5
12F1
100
AcDbEntity
  8
VHH-025
100
AcDbSpline
210
0.0
220
0.0
230
1.0
 70
     8
 71
     3
 72
    15
 73
    11
 74
     9
 42
0.0000001
 43
0.0000001
 44
0.0000000001
 40
0.0
 40
0.0
 40
0.0
 40
0.0
 40
0.4359904243240473
 40
0.794812201045396
 40
1.153633987719484
 40
1.512391879191823
 40
2.67098811864145
 40
3.240700171742211
 40
3.620272909985837
 40
4.18992292674796
 40
4.18992292674796
 40
4.18992292674796
 40
4.18992292674796
 10
255.4928251581468
 20
401.5000890768947
 30
0.0
 10
255.6395475203172
 20
401.4818414903492
 30
0.0
 10
255.9070229443475
 20
401.4485760707055
 30
0.0
 10
256.2259826421257
 20
401.2124678438884
 30
0.0
 10
256.4360920162505
 20
400.9110393409235
 30
0.0
 10
256.5511556228468
 20
400.286014036945
 30
0.0
 10
256.5006632364352
 20
399.5892982105169
 30
0.0
 10
256.6371486635441
 20
398.8929363795023
 30
0.0
 10
256.8490961413981
 20
398.4277974718395
 30
0.0
 10
257.0575758457227
 20
398.1873199087408
 30
0.0
 10
257.1826892255239
 20
398.0430038911067
 30
0.0
 11
255.4928251581468
 21
401.5000890768947
 31
0.0
 11
255.9186320957078
 21
401.4064082249173
 31
0.0
 11
256.2113989618856
 21
401.1989458680477
 31
0.0
 11
256.4120850954996
 21
400.9014930980706
 31
0.0
 11
256.4948482473746
 21
400.5524121828297
 31
0.0
 11
256.5554968001788
 21
399.3954044045026
 31
0.0
 11
256.6750307156171
 21
398.8383734659469
 31
0.0
 11
256.8347303835171
 21
398.4940313690572
 31
0.0
 11
257.1826892255239
 21
398.0430038911067
 31
0.0
  0
SPLINE
  5
12F2
100
AcDbEntity
  8
VHH-025
100
AcDbSpline
210
0.0
220
0.0
230
-1.0
 70
     8
 71
     3
 72
    10
 73
     6
 74
     4
 42
0.0000001
 43
0.0000001
 44
0.0000000001
 40
0.0
 40
0.0
 40
0.0
 40
0.0
 40
0.5656918030217481
 40
1.131091204875098
 40
1.98428193914176
 40
1.98428193914176
 40
1.98428193914176
 40
1.98428193914176
 10
252.8970874873893
 20
396.6648841375213
 30
0.0
 10
253.0230596861968
 20
396.8055392487332
 30
0.0
 10
253.2749389698787
 20
397.0867767677546
 30
0.0
 10
253.8531442167601
 20
397.4445914560399
 30
0.0
 10
254.3326325524358
 20
397.4791477389572
 30
0.0
 10
254.6210139494096
 20
397.4999311207425
 30
0.0
 11
252.8970874873893
 21
396.6648841375213
 31
0.0
 11
253.2944422354858
 21
397.0675209716178
 31
0.0
 11
253.7797875663263
 21
397.357549234805
 31
0.0
 11
254.6210139494096
 21
397.4999311207425
 31
0.0
  0
SPLINE
  5
12F3
100
AcDbEntity
  8
VHH-025
100
AcDbSpline
210
0.0
220
0.0
230
1.0
 70
     8
 71
     3
 72
    14
 73
    10
 74
     8
 42
0.0000001
 43
0.0000001
 44
0.0000000001
 40
0.0
 40
0.0
 40
0.0
 40
0.0
 40
6.668510831000305
 40
11.72772936545923
 40
13.6169314974813
 40
14.43388961246706
 40
16.23491697104807
 40
18.01579771733867
 40
19.12641922158365
 40
19.12641922158365
 40
19.12641922158365
 40
19.12641922158365
 10
233.4803432979497
 20
385.9851389888822
 30
0.0
 10
233.0787506350069
 20
383.7961378408974
 30
0.0
 10
232.3724804968147
 20
379.946400816418
 30
0.0
 10
231.5215468434543
 20
375.5117558875622
 30
0.0
 10
231.1555102173632
 20
372.9147307506469
 30
0.0
 10
230.4063471873508
 20
371.5844757337943
 30
0.0
 10
229.1340886860838
 20
370.7356692746977
 30
0.0
 10
228.60313963892
 20
369.1740985358996
 30
0.0
 10
228.528563279099
 20
368.2168504587342
 30
0.0
 10
228.4999186156164
 20
367.8491729654174
 30
0.0
 11
233.4803432979497
 21
385.9851389888822
 31
0.0
 11
232.2669632196975
 21
379.4279486234231
 31
0.0
 11
231.3800083651713
 21
374.4470849166505
 31
0.0
 11
230.9479187120032
 21
372.6079592474093
 31
0.0
 11
230.538554932993
 21
371.9009642982932
 31
0.0
 11
229.2877128847776
 21
370.6051658121182
 31
0.0
 11
228.6231176955534
 21
368.9529402019279
 31
0.0
 11
228.4999186156164
 21
367.8491729654174
 31
0.0
  0
SPLINE
  5
12F4
100
AcDbEntity
  8
VHH-025
100
AcDbSpline
210
0.0
220
0.0
230
-1.0
 70
     8
 71
     3
 72
    13
 73
     9
 74
     7
 42
0.0000001
 43
0.0000001
 44
0.0000000001
 40
0.0
 40
0.0
 40
0.0
 40
0.0
 40
3.191871827524609
 40
8.851217422001266
 40
13.24422149420543
 40
15.17417334972449
 40
16.19007197052209
 40
17.17775719291084
 40
17.17775719291084
 40
17.17775719291084
 40
17.17775719291084
 10
226.977415923433
 20
386.0001236641583
 30
0.0
 10
226.978630362033
 20
384.9361797640104
 30
0.0
 10
226.9819980599467
 20
381.9858110481325
 30
0.0
 10
227.0443155052074
 20
377.5707983032302
 30
0.0
 10
227.2127306431553
 20
373.5803650020897
 30
0.0
 10
227.434231897445
 20
371.1409716258466
 30
0.0
 10
227.6925304188325
 20
369.8534213080435
 30
0.0
 10
227.880748949496
 20
369.2124027867559
 30
0.0
 10
227.9735330183775
 20
368.8964067664715
 30
0.0
 11
226.977415923433
 21
386.0001236641583
 31
0.0
 11
226.9860372013954
 21
382.8082634797342
 31
0.0
 11
227.0800645942999
 21
377.149699049854
 31
0.0
 11
227.2965703323188
 21
372.7620333784739
 31
0.0
 11
227.5066852610307
 21
370.8435532817948
 31
0.0
 11
227.7089476805686
 21
369.8479931774409
 31
0.0
 11
227.9735330183775
 21
368.8964067664715
 31
0.0
  0
SPLINE
  5
12F5
100
AcDbEntity
  8
VHH-025
100
AcDbSpline
210
0.0
220
0.0
230
1.0
 70
     8
 71
     3
 72
    14
 73
    10
 74
     8
 42
0.0000001
 43
0.0000001
 44
0.0000000001
 40
0.0
 40
0.0
 40
0.0
 40
0.0
 40
3.191871827524154
 40
5.335857413240205
 40
8.376690508344537
 40
10.96293588672739
 40
13.24458335793557
 40
15.17453521347446
 40
16.06516229607356
 40
16.06516229607356
 40
16.06516229607356
 40
16.06516229607356
 10
247.8153277972623
 20
386.0001236641578
 30
0.0
 10
247.8137689615866
 20
384.9361692513917
 30
0.0
 10
247.8111630534091
 20
383.1575548998528
 30
0.0
 10
247.7897656394358
 20
380.3653456421153
 30
0.0
 10
247.7378140008147
 20
377.7755671926199
 30
0.0
 10
247.6461177961838
 20
375.140282660773
 30
0.0
 10
247.5141340012652
 20
372.8793974753953
 30
0.0
 10
247.3691207727761
 20
371.1808284724775
 30
0.0
 10
247.1746348718413
 20
370.2604699642578
 30
0.0
 10
247.1132239294938
 20
369.9698572102456
 30
0.0
 11
247.8153277972623
 21
386.0001236641578
 31
0.0
 11
247.8067065192999
 21
382.8082634797342
 31
0.0
 11
247.788394267297
 21
380.6643560999286
 31
0.0
 11
247.7267082058397
 21
377.6241487481015
 31
0.0
 11
247.631839537903
 21
375.0396439419442
 31
0.0
 11
247.4961733883801
 21
372.762033378493
 31
0.0
 11
247.2860584596646
 21
370.8435532817943
 31
0.0
 11
247.1132239294938
 21
369.9698572102456
 31
0.0
  0
LINE
  5
12F6
100
AcDbEntity
  8
VHH-025
100
AcDbLine
 10
241.3124
 20
385.985139
 30
0.0
 11
243.799311
 21
372.632899
 31
0.0
  0
SPLINE
  5
12F7
100
AcDbEntity
  8
VHH-025
100
AcDbSpline
210
0.0
220
0.0
230
1.0
 70
     8
 71
     3
 72
    14
 73
    10
 74
     8
 42
0.0000001
 43
0.0000001
 44
0.0000000001
 40
0.0
 40
0.0
 40
0.0
 40
0.0
 40
0.2762442808532405
 40
0.5524885617056455
 40
1.103680952616389
 40
2.766577242775856
 40
3.871679079315657
 40
4.976969695300173
 40
5.504499993161342
 40
5.504499993161342
 40
5.504499993161342
 40
5.504499993161342
 10
243.7993114977225
 20
372.6328991834275
 30
0.0
 10
243.8425520357951
 20
372.5517775726248
 30
0.0
 10
243.9290331119401
 20
372.3895343510197
 30
0.0
 10
244.0792154902284
 20
372.0493763341207
 30
0.0
 10
244.7232605478654
 20
371.498827886201
 30
0.0
 10
245.4600347354597
 20
370.6692289969812
 30
0.0
 10
246.0366226367034
 20
369.4935171501912
 30
0.0
 10
246.1985769729153
 20
368.5903837407958
 30
0.0
 10
246.2918291731926
 20
368.0545153142661
 30
0.0
 10
246.3219570093633
 20
367.881387429717
 30
0.0
 11
243.7993114977225
 21
372.6328991834275
 31
0.0
 11
243.9262076870972
 21
372.3875254688077
 31
0.0
 11
244.0531038764702
 21
372.142151754188
 31
0.0
 11
244.4307256325164
 21
371.740636049441
 31
0.0
 11
245.5108124650678
 21
370.4762640685844
 31
0.0
 11
245.9870292310924
 21
369.4790340746108
 31
0.0
 11
246.2312256168452
 21
368.4010565836729
 31
0.0
 11
246.3219570093633
 21
367.881387429717
 31
0.0
  0
SPLINE
  5
12F8
100
AcDbEntity
  8
VHH-025
100
AcDbSpline
210
0.0
220
0.0
230
1.0
 70
     8
 71
     3
 72
     9
 73
     5
 74
     3
 42
0.0000001
 43
0.0000001
 44
0.0000000001
 40
0.0
 40
0.0
 40
0.0
 40
0.0
 40
0.9804242998629113
 40
1.248549817031178
 40
1.248549817031178
 40
1.248549817031178
 40
1.248549817031178
 10
242.2294053569048
 20
386.5000000000004
 30
0.0
 10
241.7741367506671
 20
386.5120388846589
 30
0.0
 10
241.194361713372
 20
386.5273701521924
 30
0.0
 10
241.2915329442018
 20
386.0809973494746
 30
0.0
 10
241.3124004227475
 20
385.9851389888822
 30
0.0
 11
242.2294053569048
 21
386.5000000000004
 31
0.0
 11
241.2810169694557
 21
386.2514214926564
 31
0.0
 11
241.3124004227475
 21
385.9851389888822
 31
0.0
  0
LINE
  5
12F9
100
AcDbEntity
  8
VHH-025
100
AcDbLine
 10
243.390964
 20
387.499973
 30
0.0
 11
243.303335
 21
386.5
 31
0.0
  0
SPLINE
  5
12FA
100
AcDbEntity
  8
VHH-025
100
AcDbSpline
210
0.0
220
0.0
230
1.0
 70
     8
 71
     3
 72
    11
 73
     7
 74
     5
 42
0.0000001
 43
0.0000001
 44
0.0000000001
 40
0.0
 40
0.0
 40
0.0
 40
0.0
 40
0.3841279782296366
 40
0.6571598466962501
 40
0.8605649504649349
 40
1.063282916677501
 40
1.063282916677501
 40
1.063282916677501
 40
1.063282916677501
 10
232.7911504495241
 20
387.5000000000004
 30
0.0
 10
232.9174754178609
 20
387.5107752757321
 30
0.0
 10
233.1335901023698
 20
387.5292094407741
 30
0.0
 10
233.4241604165777
 20
387.6184910175473
 30
0.0
 10
233.5447352812953
 20
387.8286078052198
 30
0.0
 10
233.5530275509297
 20
387.9643318170879
 30
0.0
 10
233.5571666707183
 20
388.0320790042974
 30
0.0
 11
232.7911504495241
 21
387.5000000000004
 31
0.0
 11
233.1720987735479
 21
387.5493221865113
 31
0.0
 11
233.4226174635714
 21
387.6578891573048
 31
0.0
 11
233.5288508859375
 21
387.8313483634933
 31
0.0
 11
233.5571666707183
 21
388.0320790042974
 31
0.0
  0
SPLINE
  5
12FB
100
AcDbEntity
  8
VHH-025
100
AcDbSpline
210
0.0
220
0.0
230
1.0
 70
     8
 71
     3
 72
    10
 73
     6
 74
     4
 42
0.0000001
 43
0.0000001
 44
0.0000000001
 40
0.0
 40
0.0
 40
0.0
 40
0.0
 40
0.416411174439418
 40
0.9163436501236883
 40
1.254422898233775
 40
1.254422898233775
 40
1.254422898233775
 40
1.254422898233775
 10
232.5633383637905
 20
386.5000000000004
 30
0.0
 10
232.6958555688085
 20
386.5057205132849
 30
0.0
 10
232.9874694994717
 20
386.5183089267219
 30
0.0
 10
233.5116953390901
 20
386.4217752936949
 30
0.0
 10
233.4893557593567
 20
386.1106545120475
 30
0.0
 10
233.4803432979497
 20
385.9851389888822
 30
0.0
 11
232.5633383637905
 21
386.5000000000004
 31
0.0
 11
232.9797495382299
 21
386.499999984006
 31
0.0
 11
233.4467465510224
 21
386.3215447507213
 31
0.0
 11
233.4803432979497
 21
385.9851389888822
 31
0.0
  0
LINE
  5
12FC
100
AcDbEntity
  8
VHH-025
100
AcDbLine
 10
231.401779
 20
387.499973
 30
0.0
 11
231.489409
 21
386.5
 31
0.0
  0
LINE
  5
12FD
100
AcDbEntity
  8
VHH-025
100
AcDbLine
 10
252.141977
 20
387.499927
 30
0.0
 11
252.526312
 21
395.6046
 31
0.0
  0
LINE
  5
12FE
100
AcDbEntity
  8
VHH-025
100
AcDbLine
 10
241.168847
 20
387.499983
 30
0.0
 11
242.222494
 21
395.883767
 31
0.0
  0
LINE
  5
12FF
100
AcDbEntity
  8
VHH-025
100
AcDbLine
 10
247.686034
 20
387.499986
 30
0.0
 11
248.028449
 21
395.604646
 31
0.0
  0
SPLINE
  5
1300
100
AcDbEntity
  8
VHH-025
100
AcDbSpline
210
0.0
220
0.0
230
1.0
 70
     8
 71
     3
 72
    15
 73
    11
 74
     9
 42
0.0000001
 43
0.0000001
 44
0.0000000001
 40
0.0
 40
0.0
 40
0.0
 40
0.0
 40
3.524230532083018
 40
10.56230341439668
 40
14.08777785911595
 40
14.66940041025992
 40
16.34667952900539
 40
17.98151335014115
 40
19.07167367623197
 40
19.63693971326737
 40
19.63693971326737
 40
19.63693971326737
 40
19.63693971326737
 10
233.5571666707183
 20
388.0320790042965
 30
0.0
 10
233.4277748583775
 20
389.2003657571214
 30
0.0
 10
233.0399808225332
 20
392.7017823205444
 30
0.0
 10
232.0454402171015
 20
397.291419870203
 30
0.0
 10
231.4418989088857
 20
400.9694239614224
 30
0.0
 10
230.6804791443217
 20
402.767192370585
 30
0.0
 10
229.5297149238697
 20
403.5168504832761
 30
0.0
 10
228.9075190801704
 20
404.8982947199797
 30
0.0
 10
228.668522293549
 20
405.9688291793045
 30
0.0
 10
228.6173810858179
 20
406.5187619337392
 30
0.0
 10
228.5999182807863
 20
406.7065433510583
 30
0.0
 11
233.5571666707183
 21
388.0320790042965
 31
0.0
 11
233.1291505128574
 21
391.5302217989628
 31
0.0
 11
231.8745704333632
 21
398.455573683228
 31
0.0
 11
231.0480065117335
 21
401.8827827728268
 31
0.0
 11
230.8001582992819
 21
402.4089539004876
 31
0.0
 11
229.6481522328649
 21
403.6280302988802
 31
0.0
 11
228.8979162472569
 21
405.0805548558596
 31
0.0
 11
228.6603641165966
 21
406.1445184463086
 31
0.0
 11
228.5999182807863
 21
406.7065433510583
 31
0.0
  0
SPLINE
  5
1301
100
AcDbEntity
  8
VHH-025
100
AcDbSpline
210
0.0
220
0.0
230
-1.0
 70
     8
 71
     3
 72
    13
 73
     9
 74
     7
 42
0.0000001
 43
0.0000001
 44
0.0000000001
 40
0.0
 40
0.0
 40
0.0
 40
0.0
 40
3.85332590562823
 40
7.478466687706418
 40
11.60106584746573
 40
14.07178639561697
 40
16.56731397739596
 40
17.70441817269807
 40
17.70441817269807
 40
17.70441817269807
 40
17.70441817269807
 10
227.0775307504773
 20
388.000128256202
 30
0.0
 10
227.0796211318193
 20
389.2845892633656
 30
0.0
 10
227.083678106914
 20
391.7774484424191
 30
0.0
 10
227.1241241700966
 20
395.6440826778794
 30
0.0
 10
227.2279176416883
 20
399.050065214559
 30
0.0
 10
227.3938901773039
 20
402.0729481233018
 30
0.0
 10
227.6337134300892
 20
404.1030503465847
 30
0.0
 10
227.9674401082125
 20
405.2680429028111
 30
0.0
 10
228.071904867942
 20
405.6327145801165
 30
0.0
 11
227.0775307504773
 21
388.000128256202
 31
0.0
 11
227.0896469033668
 21
391.8534351131529
 31
0.0
 11
227.1337051800201
 21
395.4783081534324
 31
0.0
 11
227.2655856251112
 21
399.5987973695632
 31
0.0
 11
227.4192901902697
 21
402.0647322701043
 31
0.0
 11
227.7772243868439
 21
404.5344571580913
 31
0.0
 11
228.071904867942
 21
405.6327145801165
 31
0.0
  0
SPLINE
  5
1302
100
AcDbEntity
  8
VHH-025
100
AcDbSpline
210
0.0
220
0.0
230
-1.0
 70
     8
 71
     3
 72
    11
 73
     7
 74
     5
 42
0.0000001
 43
0.0000001
 44
0.0000000001
 40
0.0
 40
0.0
 40
0.0
 40
0.0
 40
0.5680371946337807
 40
1.463279599702116
 40
2.456250895122886
 40
4.878568014842747
 40
4.878568014842747
 40
4.878568014842747
 40
4.878568014842747
 10
326.8327605898057
 20
399.7211383457629
 30
0.0
 10
326.8287468673719
 20
399.9093668388419
 30
0.0
 10
326.8184074068372
 20
400.3942486680728
 30
0.0
 10
327.233240924849
 20
401.2384783989707
 30
0.0
 10
328.7888726455197
 20
401.3392451567344
 30
0.0
 10
329.8933290301555
 20
401.434469582272
 30
0.0
 10
330.6766724211929
 20
401.5020081699863
 30
0.0
 11
326.8327605898057
 21
399.7211383457629
 31
0.0
 11
326.8595190430596
 21
400.2885449369009
 31
0.0
 11
327.2982315614981
 21
401.0689232361878
 31
0.0
 11
328.2622069442231
 21
401.3071320836929
 31
0.0
 11
330.6766724211929
 21
401.5020081699863
 31
0.0
  0
LINE
  5
1303
100
AcDbEntity
  8
VHH-025
100
AcDbLine
 10
326.805934
 20
397.5
 30
0.0
 11
326.832761
 21
399.721138
 31
0.0
  0
LINE
  5
1304
100
AcDbEntity
  8
VHH-025
100
AcDbLine
 10
330.892587
 20
400.511953
 30
0.0
 11
329.183238
 21
400.451988
 31
0.0
  0
ARC
  5
1305
100
AcDbEntity
  8
VHH-025
100
AcDbCircle
 10
273.142825
 20
398.4
 30
0.0
 40
2.8
100
AcDbArc
 50
90.0
 51
180.0
  0
LINE
  5
1306
100
AcDbEntity
  8
VHH-025
100
AcDbLine
 10
270.342825
 20
398.4
 30
0.0
 11
270.342825
 21
397.500025
 31
0.0
  0
LWPOLYLINE
  5
1307
100
AcDbEntity
  8
VHH-025
100
AcDbPolyline
 90
        6
 70
     0
 43
0.0
 10
311.031111
 20
435.042905
 10
311.930626
 20
435.042892
 10
314.871357
 20
435.04286
 10
317.133177
 20
435.042869
 10
318.826963
 20
435.042889
 10
320.07383
 20
435.042903
  0
LWPOLYLINE
  5
1308
100
AcDbEntity
  8
VHH-025
100
AcDbPolyline
 90
        6
 70
     0
 43
0.0
 10
299.864477
 20
435.042378
 10
300.331945
 20
435.042428
 10
301.710073
 20
435.042556
 10
303.648261
 20
435.042705
 10
306.251927
 20
435.042841
 10
311.031111
 20
435.042905
  0
LWPOLYLINE
  5
1309
100
AcDbEntity
  8
VHH-025
100
AcDbPolyline
 90
        3
 70
     0
 43
0.0
 10
299.864395
 20
435.042378
 10
299.851534
 20
435.345546
 10
299.748336
 20
435.6309
  0
ELLIPSE
  5
130A
100
AcDbEntity
  8
VHH-025
100
AcDbEllipse
 10
310.248446
 20
435.152596
 30
0.0
 11
0.0000044791293391
 21
0.9999999999706712
 31
0.0
210
0.0
220
0.0
230
1.0
 40
0.787417
 41
4.602480294514935
 42
5.206678977368046
  0
ELLIPSE
  5
130B
100
AcDbEntity
  8
VHH-025
100
AcDbEllipse
 10
319.462275
 20
435.152594
 30
0.0
 11
-0.0000055313271815
 21
0.9999999999763709
 31
0.0
210
0.0
220
0.0
230
1.0
 40
0.615267
 41
4.602473364330868
 42
5.206673556376944
  0
LINE
  5
130C
100
AcDbEntity
  8
VHH-025
100
AcDbLine
 10
299.864395
 20
435.042378
 30
0.0
 11
299.254894
 21
429.519382
 31
0.0
  0
ARC
  5
130D
100
AcDbEntity
  8
VHH-025
100
AcDbCircle
 10
301.242825
 20
429.3
 30
0.0
 40
2.0
100
AcDbArc
 50
173.702494
 51
260.0
  0
LINE
  5
130E
100
AcDbEntity
  8
VHH-025
100
AcDbLine
 10
270.342825
 20
398.4
 30
0.0
 11
326.803899
 21
398.4
 31
0.0
  0
LINE
  5
130F
100
AcDbEntity
  8
VHH-025
100
AcDbLine
 10
273.142825
 20
401.2
 30
0.0
 11
327.561022
 21
401.2
 31
0.0
  0
SPLINE
  5
1310
100
AcDbEntity
  8
VHH-025
100
AcDbSpline
210
0.0
220
0.0
230
1.0
 70
     8
 71
     3
 72
    11
 73
     7
 74
     5
 42
0.0000001
 43
0.0000001
 44
0.0000000001
 40
0.0
 40
0.0
 40
0.0
 40
0.0
 40
1.000366720787654
 40
4.132811894237304
 40
8.265836390237563
 40
11.00558801193088
 40
11.00558801193088
 40
11.00558801193088
 40
11.00558801193088
 10
328.8447152371673
 20
386.499999942584
 30
0.0
 10
328.8531977071522
 20
386.8333536056441
 30
0.0
 10
328.8882413087812
 20
388.2105365477129
 30
0.0
 10
328.9723609964875
 20
390.9639993428762
 30
0.0
 10
329.1698443641357
 20
394.297176436355
 30
0.0
 10
329.0713889810344
 20
396.5871596121562
 30
0.0
 10
329.0321408968693
 20
397.5000345570274
 30
0.0
 11
328.8447152371673
 21
386.499999942584
 31
0.0
 11
328.8705736688689
 21
387.5000324008419
 31
0.0
 11
328.975091022793
 21
390.6307334225616
 31
0.0
 11
329.1126820781964
 21
394.7614670360994
 31
0.0
 11
329.0321408968693
 21
397.5000345570274
 31
0.0
  0
LINE
  5
1311
100
AcDbEntity
  8
VHH-025
100
AcDbLine
 10
330.269878
 20
386.5
 30
0.0
 11
330.892587
 21
400.511953
 31
0.0
  0
LINE
  5
1312
100
AcDbEntity
  8
VHH-025
100
AcDbLine
 10
256.707274
 20
511.7
 30
0.0
 11
280.291227
 21
511.7
 31
0.0
  0
LINE
  5
1313
100
AcDbEntity
  8
VHH-025
100
AcDbLine
 10
257.092825
 20
509.7
 30
0.0
 11
260.741353
 21
509.7
 31
0.0
  0
LINE
  5
1314
100
AcDbEntity
  8
VHH-025
100
AcDbLine
 10
260.492825
 20
509.1
 30
0.0
 11
257.092825
 21
509.1
 31
0.0
  0
SPLINE
  5
1315
100
AcDbEntity
  8
VHH-025
100
AcDbSpline
210
0.0
220
0.0
230
-1.0
 70
     8
 71
     3
 72
    17
 73
    13
 74
    11
 42
0.0000001
 43
0.0000001
 44
0.0000000001
 40
0.0
 40
0.0
 40
0.0
 40
0.0
 40
0.5545798661044809
 40
1.65356217845103
 40
2.750923934510153
 40
3.848571212510978
 40
4.674193321129976
 40
5.488636099266747
 40
8.524172564827331
 40
12.84394436806115
 40
16.51294489443665
 40
20.18194542081152
 40
20.18194542081152
 40
20.18194542081152
 40
20.18194542081152
 10
247.2087686755703
 20
541.88535749845
 30
0.0
 10
247.1808588701356
 20
541.7026698175614
 30
0.0
 10
247.0976416430139
 20
541.1579593835024
 30
0.0
 10
246.8633103096035
 20
540.264623735308
 30
0.0
 10
246.3319752098093
 20
539.2910481188903
 30
0.0
 10
245.6629617193218
 20
538.5299702545471
 30
0.0
 10
244.9454565159822
 20
537.956497003874
 30
0.0
 10
244.0722307256166
 20
536.6443091403947
 30
0.0
 10
243.2577763648265
 20
534.0215989233557
 30
0.0
 10
242.2054233717756
 20
530.4990277768241
 30
0.0
 10
241.7756711683715
 20
526.6252619162187
 30
0.0
 10
241.406429466953
 20
524.2084207388922
 30
0.0
 10
241.2218086162438
 20
523.0000001502289
 30
0.0
 11
247.2087686755703
 21
541.88535749845
 31
0.0
 11
247.1185559843788
 21
541.3381642069739
 31
0.0
 11
246.8213132766077
 21
540.2801429900186
 31
0.0
 11
246.2990075809766
 21
539.3150525362411
 31
0.0
 11
245.5772789692937
 21
538.4880474830638
 31
0.0
 11
244.9738314027754
 21
537.9245735256322
 31
0.0
 11
244.5020486810417
 21
537.2606924351252
 31
0.0
 11
243.3911078033206
 21
534.4357513738009
 31
0.0
 11
242.2801669255995
 21
530.261276700477
 31
0.0
 11
241.7509877709226
 21
526.6306384253526
 31
0.0
 11
241.2218086162438
 21
523.0000001502289
 31
0.0
  0
SPLINE
  5
1316
100
AcDbEntity
  8
VHH-025
100
AcDbSpline
210
0.0
220
0.0
230
1.0
 70
     8
 71
     3
 72
    13
 73
     9
 74
     7
 42
0.0000001
 43
0.0000001
 44
0.0000000001
 40
0.0
 40
0.0
 40
0.0
 40
0.0
 40
5.157331242127678
 40
11.03348381863841
 40
14.6191666271849
 40
16.78242660352459
 40
17.89174384221371
 40
18.52503597702162
 40
18.52503597702162
 40
18.52503597702162
 40
18.52503597702162
 10
247.8532062242893
 20
523.0000001114844
 30
0.0
 10
247.942222004985
 20
524.7169780778863
 30
0.0
 10
248.1326604565404
 20
528.3902439046975
 30
0.0
 10
248.2614443860772
 20
533.2602549082196
 30
0.0
 10
248.2825671734073
 20
537.1399900125473
 30
0.0
 10
248.037051890095
 20
539.4167616270014
 30
0.0
 10
247.7589549194849
 20
540.6932364663024
 30
0.0
 10
247.5551380278162
 20
541.2376587941427
 30
0.0
 10
247.4810677075265
 20
541.4355105809395
 30
0.0
 11
247.8532062242893
 21
523.0000001114844
 31
0.0
 11
248.0998815065368
 21
528.151428733348
 31
0.0
 11
248.2561048132838
 21
534.0255042674948
 31
0.0
 11
248.2010272431862
 21
537.6107640439654
 31
0.0
 11
247.9486994997378
 21
539.7592575708626
 31
0.0
 11
247.692746846943
 21
540.8386430328642
 31
0.0
 11
247.4810677075265
 21
541.4355105809395
 31
0.0
  0
SPLINE
  5
1317
100
AcDbEntity
  8
VHH-025
100
AcDbSpline
210
0.0
220
0.0
230
1.0
 70
     8
 71
     3
 72
    11
 73
     7
 74
     5
 42
0.0000001
 43
0.0000001
 44
0.0000000001
 40
0.0
 40
0.0
 40
0.0
 40
0.0
 40
0.650158583643722
 40
1.328696847749662
 40
2.007498148688771
 40
2.665365116564809
 40
2.665365116564809
 40
2.665365116564809
 40
2.665365116564809
 10
242.2737548801478
 20
513.2798863506828
 30
0.0
 10
242.3122442430841
 20
513.0617176408115
 30
0.0
 10
242.3909030449395
 20
512.6158570702118
 30
0.0
 10
242.8813073612956
 20
512.1199186768709
 30
0.0
 10
243.4690510430866
 20
511.7706116462888
 30
0.0
 10
243.9174012086795
 20
511.7232902761232
 30
0.0
 10
244.1380653561473
 20
511.7000001546825
 30
0.0
 11
242.2737548801478
 21
513.2798863506828
 31
0.0
 11
242.4481055835922
 21
512.6535413849537
 31
0.0
 11
242.8973104925889
 21
512.1449854631623
 31
0.0
 11
243.4902446344867
 21
511.8145307619875
 31
0.0
 11
244.1380653561473
 21
511.7000001546825
 31
0.0
  0
SPLINE
  5
1318
100
AcDbEntity
  8
VHH-025
100
AcDbSpline
210
0.0
220
0.0
230
1.0
 70
     8
 71
     3
 72
    12
 73
     8
 74
     6
 42
0.0000001
 43
0.0000001
 44
0.0000000001
 40
0.0
 40
0.0
 40
0.0
 40
0.0
 40
0.5662025144873023
 40
1.132136061659382
 40
1.697787119143932
 40
2.263116602111067
 40
2.828292171028441
 40
2.828292171028441
 40
2.828292171028441
 40
2.828292171028441
 10
248.2392952419422
 20
513.4078597155216
 30
0.0
 10
248.2778294782161
 20
513.2209906306529
 30
0.0
 10
248.354879645564
 20
512.8473412307014
 30
0.0
 10
248.6937881745841
 20
512.3795073738375
 30
0.0
 10
249.1090164371872
 20
511.9881665273062
 30
0.0
 10
249.641466883966
 20
511.7617161549875
 30
0.0
 10
250.0170305558914
 20
511.7205702874986
 30
0.0
 10
250.2047868260569
 20
511.7000001546825
 30
0.0
 11
248.2392952419422
 21
513.4078597155216
 31
0.0
 11
248.3921517311473
 21
512.8626806796814
 31
0.0
 11
248.7066034106474
 21
512.3921480866824
 31
0.0
 11
249.1286778301482
 21
512.0155656876827
 31
0.0
 11
249.6466866356486
 21
511.7891494741821
 31
0.0
 11
250.2047868260569
 21
511.7000001546825
 31
0.0
  0
ARC
  5
1319
100
AcDbEntity
  8
VHH-025
100
AcDbCircle
 10
257.092825
 20
510.7
 30
0.0
 40
1.6
100
AcDbArc
 50
141.317813
 51
270.0
  0
ARC
  5
131A
100
AcDbEntity
  8
VHH-025
100
AcDbCircle
 10
257.092825
 20
510.7
 30
0.0
 40
1.0
100
AcDbArc
 50
90.0
 51
270.0
  0
LINE
  5
131B
100
AcDbEntity
  8
VHH-025
100
AcDbLine
 10
243.336878
 20
523.0
 30
0.0
 11
243.196104
 21
522.0
 31
0.0
  0
LINE
  5
131C
100
AcDbEntity
  8
VHH-025
100
AcDbLine
 10
241.195655
 20
522.0
 30
0.0
 11
242.273755
 21
513.279886
 31
0.0
  0
LINE
  5
131D
100
AcDbEntity
  8
VHH-025
100
AcDbLine
 10
247.826926
 20
522.0
 30
0.0
 11
248.239295
 21
513.40786
 31
0.0
  0
SPLINE
  5
131E
100
AcDbEntity
  8
VHH-025
100
AcDbSpline
210
0.0
220
0.0
230
-1.0
 70
     8
 71
     3
 72
    13
 73
     9
 74
     7
 42
0.0000001
 43
0.0000001
 44
0.0000000001
 40
0.0
 40
0.0
 40
0.0
 40
0.0
 40
5.157331242127136
 40
11.03348381863787
 40
14.61916662718436
 40
16.78242660352404
 40
17.89174384221274
 40
18.52503597702066
 40
18.52503597702066
 40
18.52503597702066
 40
18.52503597702066
 10
226.9346359143856
 20
523.0000001114849
 30
0.0
 10
226.8456201336906
 20
524.7169780778867
 30
0.0
 10
226.6551816821366
 20
528.3902439046981
 30
0.0
 10
226.5263977525998
 20
533.2602549082194
 30
0.0
 10
226.5052749652686
 20
537.1399900125476
 30
0.0
 10
226.7507902485829
 20
539.416761627001
 30
0.0
 10
227.0288872191898
 20
540.6932364663025
 30
0.0
 10
227.2327041108586
 20
541.2376587941428
 30
0.0
 10
227.3067744311483
 20
541.4355105809395
 30
0.0
 11
226.9346359143856
 21
523.0000001114849
 31
0.0
 11
226.6879606321399
 21
528.151428733348
 31
0.0
 11
226.5317373253929
 21
534.0255042674948
 31
0.0
 11
226.5868148954905
 21
537.6107640439654
 31
0.0
 11
226.8391426389389
 21
539.7592575708626
 31
0.0
 11
227.0950952917319
 21
540.8386430328642
 31
0.0
 11
227.3067744311483
 21
541.4355105809395
 31
0.0
  0
SPLINE
  5
131F
100
AcDbEntity
  8
VHH-025
100
AcDbSpline
210
0.0
220
0.0
230
1.0
 70
     8
 71
     3
 72
    17
 73
    13
 74
    11
 42
0.0000001
 43
0.0000001
 44
0.0000000001
 40
0.0
 40
0.0
 40
0.0
 40
0.0
 40
0.5545798661040321
 40
1.653562178450582
 40
2.750923934510971
 40
3.848571212511795
 40
4.674193321129464
 40
5.488636099266234
 40
8.524172564826818
 40
12.84394436806064
 40
16.51294489443595
 40
20.18194542081101
 40
20.18194542081101
 40
20.18194542081101
 40
20.18194542081101
 10
227.5790734631045
 20
541.88535749845
 30
0.0
 10
227.6069832685393
 20
541.7026698175616
 30
0.0
 10
227.690200495661
 20
541.1579593835025
 30
0.0
 10
227.924531829071
 20
540.2646237353081
 30
0.0
 10
228.4558669288675
 20
539.2910481188907
 30
0.0
 10
229.1248804193549
 20
538.5299702545479
 30
0.0
 10
229.8423856226927
 20
537.9564970038734
 30
0.0
 10
230.7156114130584
 20
536.6443091403949
 30
0.0
 10
231.5300657738485
 20
534.0215989233557
 30
0.0
 10
232.5824187668982
 20
530.4990277768243
 30
0.0
 10
233.0121709703063
 20
526.6252619162194
 30
0.0
 10
233.3814126717228
 20
524.2084207388923
 30
0.0
 10
233.566033522431
 20
523.0000001502289
 30
0.0
 11
227.5790734631045
 21
541.88535749845
 31
0.0
 11
227.669286154296
 21
541.3381642069744
 31
0.0
 11
227.9665288620672
 21
540.2801429900192
 31
0.0
 11
228.4888345577001
 21
539.3150525362411
 31
0.0
 11
229.210563169383
 21
538.4880474830638
 31
0.0
 11
229.8140107358995
 21
537.9245735256322
 31
0.0
 11
230.2857934576331
 21
537.2606924351252
 31
0.0
 11
231.3967343353542
 21
534.4357513738009
 31
0.0
 11
232.5076752130753
 21
530.261276700477
 31
0.0
 11
233.0368543677541
 21
526.630638425353
 31
0.0
 11
233.566033522431
 21
523.0000001502289
 31
0.0
  0
SPLINE
  5
1320
100
AcDbEntity
  8
VHH-025
100
AcDbSpline
210
0.0
220
0.0
230
1.0
 70
     8
 71
     3
 72
    17
 73
    13
 74
    11
 42
0.0000001
 43
0.0000001
 44
0.0000000001
 40
0.0
 40
0.0
 40
0.0
 40
0.0
 40
3.506197438003876
 40
7.012394876008018
 40
10.46871649040359
 40
12.72673424276971
 40
14.1976802567633
 40
14.74421543556577
 40
16.1367507362756
 40
17.24703645469974
 40
18.36080100071182
 40
19.47142540553399
 40
19.47142540553399
 40
19.47142540553399
 40
19.47142540553399
 10
233.5883366324469
 20
521.4885683703691
 30
0.0
 10
233.455400382103
 20
520.3282953011316
 30
0.0
 10
233.1895278814151
 20
518.0077491626565
 30
0.0
 10
233.034459020981
 20
514.5015033944238
 30
0.0
 10
232.0518857901874
 20
511.5599829006959
 30
0.0
 10
231.4868641693835
 20
509.2512031281686
 30
0.0
 10
231.1664726480884
 20
507.8311775579576
 30
0.0
 10
230.4954459874111
 20
506.9000543460872
 30
0.0
 10
229.6756215939589
 20
506.2717188546653
 30
0.0
 10
229.0571730281186
 20
505.2176678954968
 30
0.0
 10
228.6706774898835
 20
504.1642018239228
 30
0.0
 10
228.6234824756211
 20
503.42049142283
 30
0.0
 10
228.5999182807863
 20
503.0491611654738
 30
0.0
 11
233.5883366324469
 21
521.4885683703691
 31
0.0
 11
233.2300280647832
 21
518.0007272838797
 31
0.0
 11
232.8717194971213
 21
514.5128861973899
 31
0.0
 11
231.9825745947855
 21
511.1728891248181
 31
0.0
 11
231.4300301253297
 21
508.983519631271
 31
0.0
 11
230.9665262757607
 21
507.5875087582767
 31
0.0
 11
230.6508208036321
 21
507.1413801260005
 31
0.0
 11
229.6755498959792
 21
506.1473976209185
 31
0.0
 11
229.0883092299318
 21
505.205122301982
 31
0.0
 11
228.7231163491014
 21
504.152931433487
 31
0.0
 11
228.5999182807863
 21
503.0491611654738
 31
0.0
  0
SPLINE
  5
1321
100
AcDbEntity
  8
VHH-025
100
AcDbSpline
210
0.0
220
0.0
230
1.0
 70
     8
 71
     3
 72
    12
 73
     8
 74
     6
 42
0.0000001
 43
0.0000001
 44
0.0000000001
 40
0.0
 40
0.0
 40
0.0
 40
0.0
 40
0.2800064370831081
 40
0.4549869708034157
 40
0.6605144582116726
 40
0.8644346373830195
 40
1.061580118984807
 40
1.061580118984807
 40
1.061580118984807
 40
1.061580118984807
 10
232.8486761164203
 20
522.0000000000005
 30
0.0
 10
232.9423922139959
 20
522.0006450227604
 30
0.0
 10
233.0946730108075
 20
522.0016931306352
 30
0.0
 10
233.3109889883733
 20
521.9673691095024
 30
0.0
 10
233.5017957041634
 20
521.8877935067776
 30
0.0
 10
233.5884812464052
 20
521.6878236503908
 30
0.0
 10
233.5883842911855
 20
521.5542346132036
 30
0.0
 10
233.5883366324469
 20
521.4885683703691
 30
0.0
 11
232.8486761164203
 21
522.0000000000005
 31
0.0
 11
233.1285843128735
 21
521.9925833723068
 31
0.0
 11
233.3009035641061
 21
521.9621816809781
 31
0.0
 11
233.4833811568987
 21
521.8676117269283
 31
0.0
 11
233.5746075347833
 21
521.6852352277533
 31
0.0
 11
233.5883366324469
 21
521.4885683703691
 31
0.0
  0
SPLINE
  5
1322
100
AcDbEntity
  8
VHH-025
100
AcDbSpline
210
0.0
220
0.0
230
-1.0
 70
     8
 71
     3
 72
    13
 73
     9
 74
     7
 42
0.0000001
 43
0.0000001
 44
0.0000000001
 40
0.0
 40
0.0
 40
0.0
 40
0.0
 40
4.583810445733776
 40
8.698219770199068
 40
10.9693245760285
 40
14.68697053473742
 40
16.50338991512455
 40
17.39425123552251
 40
17.39425123552251
 40
17.39425123552251
 40
17.39425123552251
 10
226.9644498556554
 20
521.5009829301298
 30
0.0
 10
226.9701274871956
 20
519.9730920281565
 30
0.0
 10
226.9809013373573
 20
517.0737725629241
 30
0.0
 10
227.045383607602
 20
513.4172104798526
 30
0.0
 10
227.1908292674491
 20
510.0531749913653
 30
0.0
 10
227.3183602779
 20
507.4517484158811
 30
0.0
 10
227.6837612797425
 20
505.3342862591148
 30
0.0
 10
227.9463429553234
 20
504.4704923239788
 30
0.0
 10
228.0327484241588
 20
504.1862511644331
 30
0.0
 11
226.9644498556554
 21
521.5009829301298
 31
0.0
 11
226.9926905741485
 21
516.9172594803308
 31
0.0
 11
227.0788000695101
 21
512.8037513371451
 31
0.0
 11
227.171678432116
 21
510.5345464876831
 31
0.0
 11
227.4506532095802
 21
506.827382538268
 31
0.0
 11
227.7852926841842
 21
505.0420546167133
 31
0.0
 11
228.0327484241588
 21
504.1862511644331
 31
0.0
  0
LINE
  5
1323
100
AcDbEntity
  8
VHH-025
100
AcDbLine
 10
231.448772
 20
523.0
 30
0.0
 11
231.589547
 21
522.0
 31
0.0
  0
SPLINE
  5
1324
100
AcDbEntity
  8
VHH-025
100
AcDbSpline
210
0.0
220
0.0
230
1.0
 70
    11
 71
     3
 72
    15
 73
    11
 74
     9
 42
0.0000001
 43
0.0000001
 44
0.0000000001
 40
0.0
 40
0.0
 40
0.0
 40
0.0
 40
0.5147647394070095
 40
2.457789820816183
 40
3.944434646997511
 40
5.591791425460542
 40
7.104516291264255
 40
9.337163693808058
 40
10.73578930127875
 40
12.20445453441568
 40
12.20445453441568
 40
12.20445453441568
 40
12.20445453441568
 10
341.945728664311
 20
542.8242162485226
 30
0.0
 10
342.0100295557373
 20
542.982592953006
 30
0.0
 10
342.3170398544598
 20
543.7387765497731
 30
0.0
 10
343.57026774033
 20
544.7030339837348
 30
0.0
 10
345.4083768735644
 20
543.9774958629282
 30
0.0
 10
345.7414256882905
 20
542.2474845534901
 30
0.0
 10
344.9801116747934
 20
540.5484929961636
 30
0.0
 10
342.891215494893
 20
539.8077180773014
 30
0.0
 10
341.6031654440321
 20
541.3563404946074
 30
0.0
 10
341.8296964252342
 20
542.3270206935689
 30
0.0
 10
341.945728664311
 20
542.8242162485226
 30
0.0
 11
341.945728664311
 21
542.8242162485226
 31
0.0
 11
342.1594185616732
 21
543.2925317027861
 31
0.0
 11
343.7640603997524
 21
544.3881917953653
 31
0.0
 11
345.1454213150018
 21
543.8386875997188
 31
0.0
 11
345.5682877108311
 21
542.2465292009324
 31
0.0
 11
344.9198921927791
 21
540.8798105862238
 31
0.0
 11
342.7632752740582
 21
540.3021273772132
 31
0.0
 11
341.8470600275077
 21
541.3588691677473
 31
0.0
 11
341.945728664311
 21
542.8242162485226
 31
0.0
  0
SPLINE
  5
1325
100
AcDbEntity
  8
VHH-025
100
AcDbSpline
210
0.0
220
0.0
230
-1.0
 70
     8
 71
     3
 72
    12
 73
     8
 74
     6
 42
0.0000001
 43
0.0000001
 44
0.0000000001
 40
0.0
 40
0.0
 40
0.0
 40
0.0
 40
1.411106911324726
 40
2.125038086020586
 40
2.805834388316208
 40
3.535044224462101
 40
4.326784235140562
 40
4.326784235140562
 40
4.326784235140562
 40
4.326784235140562
 10
339.4853027848193
 20
548.8603060096107
 30
0.0
 10
339.9614921240449
 20
548.8693598300479
 30
0.0
 10
340.6786032613302
 20
548.8829943130903
 30
0.0
 10
341.5242450086963
 20
549.4608007999162
 30
0.0
 10
341.5248429203693
 20
550.2991669757197
 30
0.0
 10
340.8340320758984
 20
550.7486213022884
 30
0.0
 10
340.3247351894981
 20
550.752831618098
 30
0.0
 10
340.0596174914235
 20
550.7550233244788
 30
0.0
 11
339.4853027848193
 21
548.8603060096107
 31
0.0
 11
340.8800711199319
 21
549.0744181450813
 31
0.0
 11
341.4241936316784
 21
549.5366176846887
 31
0.0
 11
341.421601945517
 21
550.2174090538924
 31
0.0
 11
340.8462749018135
 21
550.6654556786038
 31
0.0
 11
340.0596174914235
 21
550.7550233244788
 31
0.0
  0
SPLINE
  5
1326
100
AcDbEntity
  8
VHH-025
100
AcDbSpline
210
0.0
220
0.0
230
1.0
 70
     8
 71
     3
 72
    12
 73
     8
 74
     6
 42
0.0000001
 43
0.0000001
 44
0.0000000001
 40
0.0
 40
0.0
 40
0.0
 40
0.0
 40
1.006217164968555
 40
1.679832645748139
 40
2.56445690978789
 40
3.47269837767135
 40
4.209033191014698
 40
4.209033191014698
 40
4.209033191014698
 40
4.209033191014698
 10
339.9018734733499
 20
548.8603060096107
 30
0.0
 10
340.254725218071
 20
548.8515193790135
 30
0.0
 10
340.8437947554707
 20
548.836850508876
 30
0.0
 10
341.4373141484527
 20
548.0873096992525
 30
0.0
 10
341.2361516729605
 20
547.1855605123117
 30
0.0
 10
340.528704550782
 20
546.61377573716
 30
0.0
 10
339.9735489263008
 20
546.5746431053879
 30
0.0
 10
339.7249861701702
 20
546.5571220457445
 30
0.0
 11
339.9018734733499
 21
548.8603060096107
 31
0.0
 11
340.8885655080875
 21
548.6630452388967
 31
0.0
 11
341.297333146259
 21
548.127632469223
 31
0.0
 11
341.1515868068791
 21
547.2550970297793
 31
0.0
 11
340.4516003545986
 21
546.6763729758408
 31
0.0
 11
339.7249861701702
 21
546.5571220457445
 31
0.0
  0
SPLINE
  5
1327
100
AcDbEntity
  8
VHH-025
100
AcDbSpline
210
0.0
220
0.0
230
1.0
 70
     8
 71
     3
 72
    12
 73
     8
 74
     6
 42
0.0000001
 43
0.0000001
 44
0.0000000001
 40
0.0
 40
0.0
 40
0.0
 40
0.0
 40
1.006217164968555
 40
1.679832645748139
 40
2.56445690978789
 40
3.47269837767135
 40
4.209033191014698
 40
4.209033191014698
 40
4.209033191014698
 40
4.209033191014698
 10
338.5829493571045
 20
542.5082166641555
 30
0.0
 10
338.9358011018256
 20
542.4994300335583
 30
0.0
 10
339.5248706392254
 20
542.4847611634207
 30
0.0
 10
340.1183900322074
 20
541.7352203537975
 30
0.0
 10
339.9172275567151
 20
540.8334711668564
 30
0.0
 10
339.2097804345366
 20
540.2616863917049
 30
0.0
 10
338.6546248100555
 20
540.2225537599328
 30
0.0
 10
338.4060620539248
 20
540.2050327002894
 30
0.0
 11
338.5829493571045
 21
542.5082166641555
 31
0.0
 11
339.5696413918422
 21
542.3109558934416
 31
0.0
 11
339.9784090300136
 21
541.7755431237678
 31
0.0
 11
339.8326626906337
 21
540.9030076843241
 31
0.0
 11
339.1326762383532
 21
540.3242836303856
 31
0.0
 11
338.4060620539248
 21
540.2050327002894
 31
0.0
  0
SPLINE
  5
1328
100
AcDbEntity
  8
VHH-025
100
AcDbSpline
210
0.0
220
0.0
230
-1.0
 70
     8
 71
     3
 72
    12
 73
     8
 74
     6
 42
0.0000001
 43
0.0000001
 44
0.0000000001
 40
0.0
 40
0.0
 40
0.0
 40
0.0
 40
1.411106911324726
 40
2.125038086020586
 40
2.805834388316208
 40
3.535044224462101
 40
4.326784235140562
 40
4.326784235140562
 40
4.326784235140562
 40
4.326784235140562
 10
338.166378668574
 20
542.5082166641555
 30
0.0
 10
338.6425680077995
 20
542.5172704845927
 30
0.0
 10
339.3596791450848
 20
542.530904967635
 30
0.0
 10
340.2053208924508
 20
543.1087114544611
 30
0.0
 10
340.205918804124
 20
543.9470776302646
 30
0.0
 10
339.515107959653
 20
544.3965319568333
 30
0.0
 10
339.0058110732527
 20
544.4007422726429
 30
0.0
 10
338.7406933751781
 20
544.4029339790236
 30
0.0
 11
338.166378668574
 21
542.5082166641555
 31
0.0
 11
339.5611470036865
 21
542.7223287996262
 31
0.0
 11
340.105269515433
 21
543.1845283392335
 31
0.0
 11
340.1026778292716
 21
543.8653197084372
 31
0.0
 11
339.5273507855681
 21
544.3133663331487
 31
0.0
 11
338.7406933751781
 21
544.4029339790236
 31
0.0
  0
SPLINE
  5
1329
100
AcDbEntity
  8
VHH-025
100
AcDbSpline
210
0.0
220
0.0
230
1.0
 70
     8
 71
     3
 72
    12
 73
     8
 74
     0
 42
0.0000001
 43
0.0000001
 40
0.3004138362153372
 40
0.3004138362153372
 40
0.3004138362153372
 40
0.3004138362153372
 40
0.6531836346659445
 40
2.201425060069765
 40
3.775834883110177
 40
5.170639203720888
 40
5.549375987942882
 40
5.549375987942882
 40
5.549375987942882
 40
5.549375987942882
 10
346.0041028222849
 20
546.5571220457445
 30
0.0
 10
345.9941885335001
 20
546.6152425106725
 30
0.0
 10
345.9469778864031
 20
546.9276352444971
 30
0.0
 10
345.9938098562843
 20
547.4814488339266
 30
0.0
 10
345.8518795537393
 20
548.3627740513152
 30
0.0
 10
345.215743250751
 20
548.4342724435159
 30
0.0
 10
344.9073203015714
 20
548.4320828407931
 30
0.0
 10
344.7858461911191
 20
548.4333369542232
 30
0.0
  0
LINE
  5
132A
100
AcDbEntity
  8
VHH-025
100
AcDbLine
 10
329.139595
 20
551.255023
 30
0.0
 11
326.741399
 21
539.705033
 31
0.0
  0
ARC
  5
132B
100
AcDbEntity
  8
VHH-025
100
AcDbCircle
 10
345.891737
 20
571.551541
 30
0.0
 40
0.75
100
AcDbArc
 50
180.0
 51
270.0
  0
LINE
  5
132C
100
AcDbEntity
  8
VHH-025
100
AcDbLine
 10
343.268897
 20
548.433337
 30
0.0
 11
344.785846
 21
548.433337
 31
0.0
  0
LINE
  5
132D
100
AcDbEntity
  8
VHH-025
100
AcDbLine
 10
342.879327
 20
546.557122
 30
0.0
 11
343.750964
 21
550.755023
 31
0.0
  0
LINE
  5
132E
100
AcDbEntity
  8
VHH-025
100
AcDbLine
 10
343.750964
 20
550.755023
 30
0.0
 11
345.226982
 21
550.755023
 31
0.0
  0
LINE
  5
132F
100
AcDbEntity
  8
VHH-025
100
AcDbLine
 10
331.10427
 20
551.255023
 30
0.0
 11
328.706074
 21
539.705033
 31
0.0
  0
LINE
  5
1330
100
AcDbEntity
  8
VHH-025
100
AcDbLine
 10
336.212423
 20
551.255023
 30
0.0
 11
333.814228
 21
539.705033
 31
0.0
  0
LINE
  5
1331
100
AcDbEntity
  8
VHH-025
100
AcDbLine
 10
333.46188
 20
551.255023
 30
0.0
 11
331.063684
 21
539.705033
 31
0.0
  0
LINE
  5
1332
100
AcDbEntity
  8
VHH-025
100
AcDbLine
 10
336.930473
 20
542.508217
 30
0.0
 11
338.582949
 21
542.508217
 31
0.0
  0
LINE
  5
1333
100
AcDbEntity
  8
VHH-025
100
AcDbLine
 10
336.452249
 20
540.205033
 30
0.0
 11
338.406062
 21
540.205033
 31
0.0
  0
LINE
  5
1334
100
AcDbEntity
  8
VHH-025
100
AcDbLine
 10
337.323885
 20
544.402934
 30
0.0
 11
338.740693
 21
544.402934
 31
0.0
  0
LINE
  5
1335
100
AcDbEntity
  8
VHH-025
100
AcDbLine
 10
337.323885
 20
544.402934
 30
0.0
 11
336.452249
 21
540.205033
 31
0.0
  0
ARC
  5
1336
100
AcDbEntity
  8
VHH-025
100
AcDbCircle
 10
332.391737
 20
573.551541
 30
0.0
 40
0.25
100
AcDbArc
 50
225.0
 51
315.0
  0
LINE
  5
1337
100
AcDbEntity
  8
VHH-025
100
AcDbLine
 10
338.249397
 20
548.860306
 30
0.0
 11
339.901873
 21
548.860306
 31
0.0
  0
LINE
  5
1338
100
AcDbEntity
  8
VHH-025
100
AcDbLine
 10
338.642809
 20
550.755023
 30
0.0
 11
340.059617
 21
550.755023
 31
0.0
  0
LINE
  5
1339
100
AcDbEntity
  8
VHH-025
100
AcDbLine
 10
338.642809
 20
550.755023
 30
0.0
 11
337.771173
 21
546.557122
 31
0.0
  0
LINE
  5
133A
100
AcDbEntity
  8
VHH-025
100
AcDbLine
 10
337.771173
 20
546.557122
 30
0.0
 11
339.724986
 21
546.557122
 31
0.0
  0
LINE
  5
133B
100
AcDbEntity
  8
VHH-025
100
AcDbLine
 10
334.253904
 20
511.7
 30
0.0
 11
340.298954
 21
511.7
 31
0.0
  0
LINE
  5
133C
100
AcDbEntity
  8
VHH-025
100
AcDbLine
 10
328.21093
 20
511.7
 30
0.0
 11
331.23185
 21
511.7
 31
0.0
  0
LINE
  5
133D
100
AcDbEntity
  8
VHH-025
100
AcDbLine
 10
331.23185
 20
511.7
 30
0.0
 11
334.253904
 21
511.7
 31
0.0
  0
ELLIPSE
  5
133E
100
AcDbEntity
  8
VHH-025
100
AcDbEllipse
 10
280.878281
 20
563.452897
 30
0.0
 11
-0.5847090253523675
 21
-3.845560362166452
 31
0.0
210
0.0
220
0.0
230
1.0
 40
0.934504
 41
0.0
 42
6.283185307179586
  0
LINE
  5
133F
100
AcDbEntity
  8
VHH-025
100
AcDbLine
 10
286.643779
 20
556.903354
 30
0.0
 11
274.886243
 21
556.253986
 31
0.0
  0
LINE
  5
1340
100
AcDbEntity
  8
VHH-025
100
AcDbLine
 10
289.12868
 20
554.133586
 30
0.0
 11
275.001299
 21
553.369907
 31
0.0
  0
LINE
  5
1341
100
AcDbEntity
  8
VHH-025
100
AcDbLine
 10
296.60464
 20
552.753206
 30
0.0
 11
274.314849
 21
551.606981
 31
0.0
  0
LINE
  5
1342
100
AcDbEntity
  8
VHH-025
100
AcDbLine
 10
280.291227
 20
511.7
 30
0.0
 11
283.263192
 21
511.7
 31
0.0
  0
LWPOLYLINE
  5
1343
100
AcDbEntity
  8
VHH-025
100
AcDbPolyline
 90
        6
 70
     0
 43
0.0
 10
273.403998
 20
509.322402
 10
273.320642
 20
509.70028
 10
273.100065
 20
510.01822
 10
272.775297
 20
510.228614
 10
272.405797
 20
510.299999
 10
272.404249
 20
510.3
  0
SPLINE
  5
1344
100
AcDbEntity
  8
VHH-025
100
AcDbSpline
210
0.0
220
0.0
230
-1.0
 70
     8
 71
     3
 72
    14
 73
    10
 74
     8
 42
0.0000001
 43
0.0000001
 44
0.0000000001
 40
0.0
 40
0.0
 40
0.0
 40
0.0
 40
0.2461636398491298
 40
0.4473543715030857
 40
0.8348519280356871
 40
1.027990166881787
 40
1.250840234266887
 40
1.448371555080319
 40
1.70278378988016
 40
1.70278378988016
 40
1.70278378988016
 40
1.70278378988016
 10
273.9643914785292
 20
557.4545248284598
 30
0.0
 10
273.9642153725296
 20
557.3722304303876
 30
0.0
 10
273.9638953342461
 20
557.2226764233443
 30
0.0
 10
274.0252891820825
 20
556.9491511673837
 30
0.0
 10
274.1285194460512
 20
556.7103981620157
 30
0.0
 10
274.2632716667916
 20
556.4727114014276
 30
0.0
 10
274.4429657312427
 20
556.363987389518
 30
0.0
 10
274.6487415327984
 20
556.2698163598681
 30
0.0
 10
274.8007008592872
 20
556.2596876389549
 30
0.0
 10
274.8862432049418
 20
556.2539858859568
 30
0.0
 11
273.9643914785292
 21
557.4545248284598
 31
0.0
 11
273.9739212624363
 21
557.208545722025
 31
0.0
 11
274.0156107585544
 21
557.011721698042
 31
0.0
 11
274.1634070783666
 21
556.6535170021365
 31
0.0
 11
274.2695139020606
 21
556.4921363302142
 31
0.0
 11
274.4518055728158
 21
556.3639493601008
 31
0.0
 11
274.6340972435691
 21
556.2878680254893
 31
0.0
 11
274.8862432049418
 21
556.2539858859568
 31
0.0
  0
SPLINE
  5
1345
100
AcDbEntity
  8
VHH-025
100
AcDbSpline
210
0.0
220
0.0
230
1.0
 70
     8
 71
     3
 72
    12
 73
     8
 74
     6
 42
0.0000001
 43
0.0000001
 44
0.0000000001
 40
0.0
 40
0.0
 40
0.0
 40
0.0
 40
0.6333227639766334
 40
1.258591262608845
 40
1.575282577616958
 40
2.212493335718306
 40
2.538190609334586
 40
2.538190609334586
 40
2.538190609334586
 40
2.538190609334586
 10
272.6364261643093
 20
553.1419913231116
 30
0.0
 10
272.6622741707176
 20
552.9295174019105
 30
0.0
 10
272.7136414622028
 20
552.5072716909289
 30
0.0
 10
273.04327319242
 20
552.0669763418809
 30
0.0
 10
273.4666329955754
 20
551.7539308137656
 30
0.0
 10
273.8845203823872
 20
551.6053710274958
 30
0.0
 10
274.2060826978912
 20
551.6065737614112
 30
0.0
 10
274.3148490244848
 20
551.606980578204
 30
0.0
 11
272.6364261643093
 21
553.1419913231116
 31
0.0
 11
272.7676496824015
 21
552.5224123437469
 31
0.0
 11
273.132264257666
 21
552.0144586973515
 31
0.0
 11
273.3868542514346
 21
551.8261044458081
 31
0.0
 11
273.989362225192
 21
551.6186877352979
 31
0.0
 11
274.3148490244848
 21
551.606980578204
 31
0.0
  0
LINE
  5
1346
100
AcDbEntity
  8
VHH-025
100
AcDbLine
 10
260.741353
 20
509.7
 30
0.0
 11
270.492825
 21
509.7
 31
0.0
  0
LINE
  5
1347
100
AcDbEntity
  8
VHH-025
100
AcDbLine
 10
270.492825
 20
508.7
 30
0.0
 11
261.741353
 21
508.7
 31
0.0
  0
LINE
  5
1348
100
AcDbEntity
  8
VHH-025
100
AcDbLine
 10
270.492825
 20
508.1
 30
0.0
 11
261.492825
 21
508.1
 31
0.0
  0
LINE
  5
1349
100
AcDbEntity
  8
VHH-025
100
AcDbLine
 10
261.492825
 20
508.1
 30
0.0
 11
260.492825
 21
509.1
 31
0.0
  0
LINE
  5
134A
100
AcDbEntity
  8
VHH-025
100
AcDbLine
 10
261.741353
 20
508.7
 30
0.0
 11
260.741353
 21
509.7
 31
0.0
  0
LINE
  5
134B
100
AcDbEntity
  8
VHH-025
100
AcDbLine
 10
265.257284
 20
510.3
 30
0.0
 11
265.257284
 21
510.9
 31
0.0
  0
LINE
  5
134C
100
AcDbEntity
  8
VHH-025
100
AcDbLine
 10
270.492825
 20
508.7
 30
0.0
 11
270.492825
 21
508.1
 31
0.0
  0
LINE
  5
134D
100
AcDbEntity
  8
VHH-025
100
AcDbLine
 10
270.492825
 20
509.7
 30
0.0
 11
270.492825
 21
508.7
 31
0.0
  0
LINE
  5
134E
100
AcDbEntity
  8
VHH-025
100
AcDbLine
 10
274.171454
 20
556.638215
 30
0.0
 11
275.883969
 21
553.417621
 31
0.0
  0
LINE
  5
134F
100
AcDbEntity
  8
VHH-025
100
AcDbLine
 10
274.474312
 20
553.870754
 30
0.0
 11
274.481198
 21
556.055703
 31
0.0
  0
SPLINE
  5
1350
100
AcDbEntity
  8
VHH-025
100
AcDbSpline
210
0.0
220
0.0
230
1.0
 70
     8
 71
     3
 72
    20
 73
    16
 74
     0
 42
0.0000001
 43
0.0000001
 40
0.0
 40
0.0
 40
0.0
 40
0.0
 40
0.3918367249981683
 40
0.3918367249981683
 40
0.6525501684806338
 40
0.6525501684806338
 40
1.182440120300543
 40
1.182440120300543
 40
1.712330072120452
 40
1.712330072120452
 40
2.006270928035041
 40
2.006270928035041
 40
2.315289501487082
 40
2.315289501487082
 40
2.616402084268149
 40
2.616402084268149
 40
2.616402084268149
 40
2.616402084268149
 10
296.4969912262031
 20
553.4448793183242
 30
0.0
 10
296.6275885842433
 20
553.4652047948716
 30
0.0
 10
296.7397706229157
 20
553.4834693973921
 30
0.0
 10
296.8893840871814
 20
553.5193358176971
 30
0.0
 10
296.9390903327521
 20
553.5348291204513
 30
0.0
 10
297.0619067896596
 20
553.5841206296577
 30
0.0
 10
297.1465105908673
 20
553.6366299244714
 30
0.0
 10
297.3072512974258
 20
553.7782206218094
 30
0.0
 10
297.3805387383336
 20
553.8656042831985
 30
0.0
 10
297.4649620330901
 20
554.0052175410242
 30
0.0
 10
297.4896242242148
 20
554.0559666098338
 30
0.0
 10
297.5281162315286
 20
554.1581088020206
 30
0.0
 10
297.5408274490046
 20
554.2062883098092
 30
0.0
 10
297.565288128505
 20
554.3462616220844
 30
0.0
 10
297.5751120070826
 20
554.4317513268866
 30
0.0
 10
297.5860599025645
 20
554.5320804753004
 30
0.0
  0
SPLINE
  5
1351
100
AcDbEntity
  8
VHH-025
100
AcDbSpline
210
0.0
220
0.0
230
1.0
 70
     8
 71
     3
 72
    11
 73
     7
 74
     5
 42
0.0000001
 43
0.0000001
 44
0.0000000001
 40
0.0
 40
0.0
 40
0.0
 40
0.0
 40
0.6629926957091156
 40
1.324539577353706
 40
2.135160944774346
 40
2.616402084267626
 40
2.616402084267626
 40
2.616402084267626
 40
2.616402084267626
 10
296.6046395578842
 20
552.7532061030801
 30
0.0
 10
296.8256119398367
 20
552.7875970665299
 30
0.0
 10
297.2670748206386
 20
552.8563039957123
 30
0.0
 10
297.8653569450725
 20
553.2821643961869
 30
0.0
 10
298.2174624967121
 20
553.865358433716
 30
0.0
 10
298.2644322233591
 20
554.295800310269
 30
0.0
 10
298.2819292593458
 20
554.4561473580775
 30
0.0
 11
296.6046395578842
 21
552.7532061030801
 31
0.0
 11
297.2499381355455
 21
552.9053542553261
 31
0.0
 11
297.7938717049737
 21
553.2818918346761
 31
0.0
 11
298.2036422429291
 21
553.9813166752005
 31
0.0
 11
298.2819292593458
 21
554.4561473580775
 31
0.0
  0
SPLINE
  5
1352
100
AcDbEntity
  8
VHH-025
100
AcDbSpline
210
0.0
220
0.0
230
1.0
 70
     8
 71
     3
 72
    12
 73
     8
 74
     6
 42
0.0000001
 43
0.0000001
 44
0.0000000001
 40
0.0
 40
0.0
 40
0.0
 40
0.0
 40
0.430102224716345
 40
0.8434719887057884
 40
1.254524939527736
 40
1.659116521510955
 40
1.863361491889594
 40
1.863361491889594
 40
1.863361491889594
 40
1.863361491889594
 10
286.6437793800169
 20
556.9033544413382
 30
0.0
 10
286.7863012487554
 20
556.9217674132381
 30
0.0
 10
287.0658003937277
 20
556.9578770288915
 30
0.0
 10
287.4582455591468
 20
557.1250705673642
 30
0.0
 10
287.7541428075248
 20
557.4260807858601
 30
0.0
 10
287.8782828803236
 20
557.7503294105006
 30
0.0
 10
287.9133164700659
 20
557.950107914876
 30
0.0
 10
287.9250691062561
 20
558.0171271412186
 30
0.0
 11
286.6437793800169
 21
556.9033544413382
 31
0.0
 11
287.0672780327595
 21
556.9784331655624
 31
0.0
 11
287.4440339343955
 21
557.1485200620686
 31
0.0
 11
287.7310386213585
 21
557.4427866725441
 31
0.0
 11
287.8854139259538
 21
557.8167687757827
 31
0.0
 11
287.9250691062561
 21
558.0171271412186
 31
0.0
  0
LWPOLYLINE
  5
1353
100
AcDbEntity
  8
VHH-025
100
AcDbPolyline
 90
        4
 70
     1
 43
0.0
 10
294.11203
 20
566.035148
 10
294.862308
 20
566.035148
 10
294.862308
 20
561.770476
 10
294.11203
 20
561.770476
  0
LINE
  5
1354
100
AcDbEntity
  8
VHH-025
100
AcDbLine
 10
287.984906
 20
556.492136
 30
0.0
 11
289.215688
 21
554.13829
 31
0.0
  0
ARC
  5
1355
100
AcDbEntity
  8
VHH-025
100
AcDbCircle
 10
289.101691
 20
554.632858
 30
0.0
 40
0.5
100
AcDbArc
 50
273.09421
 51
359.745727
  0
LINE
  5
1356
100
AcDbEntity
  8
VHH-025
100
AcDbLine
 10
296.56869
 20
553.452282
 30
0.0
 11
291.663729
 21
553.200051
 31
0.0
  0
LINE
  5
1357
100
AcDbEntity
  8
VHH-025
100
AcDbLine
 10
286.238297
 20
511.7
 30
0.0
 11
292.197705
 21
511.7
 31
0.0
  0
LINE
  5
1358
100
AcDbEntity
  8
VHH-025
100
AcDbLine
 10
283.263192
 20
511.7
 30
0.0
 11
286.238297
 21
511.7
 31
0.0
  0
LINE
  5
1359
100
AcDbEntity
  8
VHH-025
100
AcDbLine
 10
292.197705
 20
511.7
 30
0.0
 11
304.153229
 21
511.7
 31
0.0
  0
LINE
  5
135A
100
AcDbEntity
  8
VHH-025
100
AcDbLine
 10
304.153229
 20
511.7
 30
0.0
 11
328.21093
 21
511.7
 31
0.0
  0
LINE
  5
135C
100
AcDbEntity
  8
VHH-025
100
AcDbLine
 10
359.024179
 20
308.100231
 30
0.0
 11
359.024179
 21
386.5
 31
0.0
  0
SPLINE
  5
1360
100
AcDbEntity
  8
VHH-025
100
AcDbSpline
210
0.0
220
0.0
230
-1.0
 70
     8
 71
     3
 72
    16
 73
    12
 74
    10
 42
0.0000001
 43
0.0000001
 44
0.0000000001
 40
0.0
 40
0.0
 40
0.0
 40
0.0
 40
10.85190292105393
 40
27.28373762760674
 40
54.66412706193981
 40
69.64810772620217
 40
94.65864719296774
 40
127.0894285334894
 40
142.0601638503295
 40
154.5348977132991
 40
159.5282562252856
 40
159.5282562252856
 40
159.5282562252856
 40
159.5282562252856
 10
377.2305563923882
 20
226.9834788393795
 30
0.0
 10
377.148020044109
 20
230.5998404380027
 30
0.0
 10
376.9405080448243
 20
239.6920578805272
 30
0.0
 10
376.5914112941446
 20
257.9101169594986
 30
0.0
 10
376.2777858847696
 20
277.5064598167024
 30
0.0
 10
376.0385563798184
 20
299.9635126364087
 30
0.0
 10
375.8457817517522
 20
324.1046218323538
 30
0.0
 10
375.8479942125975
 20
348.242318586651
 30
0.0
 10
375.9600670875057
 20
368.200786803197
 30
0.0
 10
376.0626196023442
 20
379.0132601394327
 30
0.0
 10
376.1235237737589
 20
384.8356383609896
 30
0.0
 10
376.1409335948328
 20
386.499999942584
 30
0.0
 11
377.2305563923882
 21
226.9834788393795
 31
0.0
 11
376.9882109872769
 21
237.8326753862488
 31
0.0
 11
376.6678149772096
 21
254.2613861762106
 31
0.0
 11
376.2432211730747
 21
281.6384832772041
 31
0.0
 11
376.0791486280659
 21
296.6215656285417
 31
0.0
 11
375.8948504872887
 21
321.6314260562599
 31
0.0
 11
375.8893803772907
 21
354.062206935459
 31
0.0
 11
375.9752705601922
 21
369.0326958654627
 31
0.0
 11
376.0891682917126
 21
381.5069097588779
 31
0.0
 11
376.1409335948328
 21
386.499999942584
 31
0.0
  0
LINE
  5
1361
100
AcDbEntity
  8
VHH-025
100
AcDbLine
 10
374.599672
 20
250.277601
 30
0.0
 11
374.599672
 21
386.5
 31
0.0
  0
LINE
  5
1362
100
AcDbEntity
  8
VHH-025
100
AcDbLine
 10
374.597831
 20
226.98505
 30
0.0
 11
374.597831
 21
249.670246
 31
0.0
  0
LINE
  5
1363
100
AcDbEntity
  8
VHH-025
100
AcDbLine
 10
374.237017
 20
226.998421
 30
0.0
 11
374.237017
 21
249.670246
 31
0.0
  0
LINE
  5
1364
100
AcDbEntity
  8
VHH-025
100
AcDbLine
 10
368.492825
 20
248.500004
 30
0.0
 11
369.364626
 21
223.534904
 31
0.0
  0
LINE
  5
1365
100
AcDbEntity
  8
VHH-025
100
AcDbLine
 10
373.504965
 20
250.329031
 30
0.0
 11
370.840314
 21
247.304525
 31
0.0
  0
SPLINE
  5
1366
100
AcDbEntity
  8
VHH-025
100
AcDbSpline
210
0.0
220
0.0
230
1.0
 70
     8
 71
     3
 72
    11
 73
     7
 74
     5
 42
0.0000001
 43
0.0000001
 44
0.0000000001
 40
0.0
 40
0.0
 40
0.0
 40
0.0
 40
3.507846858670609
 40
6.8749459898285
 40
13.583656471553
 40
18.98257100025055
 40
18.98257100025055
 40
18.98257100025055
 40
18.98257100025055
 10
376.2428351758362
 20
226.9751439848482
 30
0.0
 10
375.4891886821373
 20
226.0774717259169
 30
0.0
 10
374.0121347660588
 20
224.3181451231988
 30
0.0
 10
370.4944019152364
 20
221.4463472934993
 30
0.0
 10
366.0682508068482
 20
218.6942221434045
 30
0.0
 10
362.212253780245
 20
217.4654141265158
 30
0.0
 10
360.4928250440871
 20
216.9174759925176
 30
0.0
 11
376.2428351758362
 21
226.9751439848482
 31
0.0
 11
373.902924527204
 21
224.361753899097
 31
0.0
 11
371.329328301902
 21
222.1905885373257
 31
0.0
 11
365.5729848261826
 21
218.7451123558462
 31
0.0
 11
360.4928250440871
 21
216.9174759925176
 31
0.0
  0
ARC
  5
1367
100
AcDbEntity
  8
VHH-025
100
AcDbCircle
 10
362.492825
 20
220.500004
 30
0.0
 40
2.0
100
AcDbArc
 50
90.000001
 51
180.000001
  0
LINE
  5
1368
100
AcDbEntity
  8
VHH-025
100
AcDbLine
 10
360.492825
 20
206.000004
 30
0.0
 11
360.492825
 21
203.500004
 31
0.0
  0
ARC
  5
1369
100
AcDbEntity
  8
VHH-025
100
AcDbCircle
 10
359.492825
 20
203.500004
 30
0.0
 40
1.0
100
AcDbArc
 50
270.000001
 51
0.000001
  0
ARC
  5
136A
100
AcDbEntity
  8
VHH-025
100
AcDbCircle
 10
361.242825
 20
207.000004
 30
0.0
 40
1.25
100
AcDbArc
 50
126.869898
 51
233.130103
  0
LINE
  5
136B
100
AcDbEntity
  8
VHH-025
100
AcDbLine
 10
360.492825
 20
220.500004
 30
0.0
 11
360.492825
 21
208.000004
 31
0.0
  0
SPLINE
  5
136C
100
AcDbEntity
  8
VHH-025
100
AcDbSpline
210
0.0
220
0.0
230
1.0
 70
     8
 71
     3
 72
     9
 73
     5
 74
     3
 42
0.0000001
 43
0.0000001
 44
0.0000000001
 40
0.0
 40
0.0
 40
0.0
 40
0.0
 40
4.377888469770917
 40
8.000949851347465
 40
8.000949851347465
 40
8.000949851347465
 40
8.000949851347465
 10
369.2352448431311
 20
227.2398460238487
 30
0.0
 10
370.6922554285087
 20
227.1514715822626
 30
0.0
 10
373.355061643647
 20
226.9899600498987
 30
0.0
 10
376.0226123292496
 20
226.9854989530105
 30
0.0
 10
377.2305563923882
 20
226.9834788393795
 30
0.0
 11
369.2352448431311
 21
227.2398460238487
 31
0.0
 11
373.6076970757121
 21
227.0217430033512
 31
0.0
 11
377.2305563923882
 21
226.9834788393795
 31
0.0
  0
ARC
  5
136D
100
AcDbEntity
  8
VHH-025
100
AcDbCircle
 10
368.365235
 20
223.500004
 30
0.0
 40
1.0
100
AcDbArc
 50
270.000001
 51
2.000001
  0
LWPOLYLINE
  5
136E
100
AcDbEntity
  8
VHH-025
100
AcDbPolyline
 90
        3
 70
   128
 43
0.0
 10
348.342108
 20
265.871072
 42
0.073203
 10
347.103504
 20
262.811483
 42
0.0597
 10
346.622824
 20
258.800004
 42
0.0597
  0
LWPOLYLINE
  5
136F
100
AcDbEntity
  8
VHH-025
100
AcDbPolyline
 90
        3
 70
   128
 43
0.0
 10
358.362824
 20
258.800004
 42
0.0597
 10
357.882144
 20
262.811483
 42
0.073203
 10
356.643541
 20
265.871072
 42
0.106775
  0
LINE
  5
1370
100
AcDbEntity
  8
VHH-025
100
AcDbLine
 10
348.991856
 20
258.722236
 30
0.0
 11
348.991856
 21
265.745067
 31
0.0
  0
LINE
  5
1371
100
AcDbEntity
  8
VHH-025
100
AcDbLine
 10
355.993793
 20
258.722236
 30
0.0
 11
355.993793
 21
265.745067
 31
0.0
  0
LINE
  5
1372
100
AcDbEntity
  8
VHH-025
100
AcDbLine
 10
348.492824
 20
266.116632
 30
0.0
 11
348.492824
 21
258.800004
 31
0.0
  0
LINE
  5
1373
100
AcDbEntity
  8
VHH-025
100
AcDbLine
 10
356.492824
 20
266.116632
 30
0.0
 11
356.492824
 21
258.800004
 31
0.0
  0
LINE
  5
1374
100
AcDbEntity
  8
VHH-025
100
AcDbLine
 10
365.492824
 20
266.9147
 30
0.0
 11
365.492824
 21
258.800004
 31
0.0
  0
ARC
  5
1375
100
AcDbEntity
  8
VHH-025
100
AcDbCircle
 10
367.408874
 20
258.050004
 30
0.0
 40
0.75
100
AcDbArc
 50
2.0
 51
90.0
  0
LINE
  5
1376
100
AcDbEntity
  8
VHH-025
100
AcDbLine
 10
351.07242
 20
250.500004
 30
0.0
 11
349.107329
 21
250.500004
 31
0.0
  0
LINE
  5
1377
100
AcDbEntity
  8
VHH-025
100
AcDbLine
 10
353.913228
 20
250.500004
 30
0.0
 11
355.878319
 21
250.500004
 31
0.0
  0
LINE
  5
1378
100
AcDbEntity
  8
VHH-025
100
AcDbLine
 10
355.878319
 20
250.500004
 30
0.0
 11
355.812752
 21
258.050004
 31
0.0
  0
LINE
  5
1379
100
AcDbEntity
  8
VHH-025
100
AcDbLine
 10
349.107329
 20
250.500004
 30
0.0
 11
349.172897
 21
258.050004
 31
0.0
  0
LINE
  5
137A
100
AcDbEntity
  8
VHH-025
100
AcDbLine
 10
361.686873
 20
250.500004
 30
0.0
 11
363.228305
 21
250.500004
 31
0.0
  0
LINE
  5
137B
100
AcDbEntity
  8
VHH-025
100
AcDbLine
 10
358.01818
 20
250.500004
 30
0.0
 11
359.82831
 21
250.500004
 31
0.0
  0
LINE
  5
137C
100
AcDbEntity
  8
VHH-025
100
AcDbLine
 10
359.82831
 20
250.500004
 30
0.0
 11
359.701295
 21
258.050004
 31
0.0
  0
LINE
  5
137D
100
AcDbEntity
  8
VHH-025
100
AcDbLine
 10
363.228305
 20
250.500004
 30
0.0
 11
363.047823
 21
258.050004
 31
0.0
  0
LINE
  5
137E
100
AcDbEntity
  8
VHH-025
100
AcDbLine
 10
366.906863
 20
250.500004
 30
0.0
 11
367.643305
 21
250.500004
 31
0.0
  0
LINE
  5
137F
100
AcDbEntity
  8
VHH-025
100
AcDbLine
 10
364.699437
 20
250.500004
 30
0.0
 11
365.875316
 21
250.500004
 31
0.0
  0
LINE
  5
1380
100
AcDbEntity
  8
VHH-025
100
AcDbLine
 10
367.643305
 20
250.500004
 30
0.0
 11
367.392558
 21
258.050004
 31
0.0
  0
LINE
  5
1381
100
AcDbEntity
  8
VHH-025
100
AcDbLine
 10
365.875316
 20
250.500004
 30
0.0
 11
365.652708
 21
258.050004
 31
0.0
  0
SPLINE
  5
1382
100
AcDbEntity
  8
VHH-025
100
AcDbSpline
210
0.0
220
0.0
230
-1.0
 70
     8
 71
     3
 72
    12
 73
     8
 74
     0
 42
0.0000001
 43
0.0000001
 40
0.0
 40
0.0
 40
0.0
 40
0.0
 40
0.892898863725035
 40
1.516803918134276
 40
4.464088593242262
 40
7.443930533147192
 40
8.036731721038924
 40
8.036731721038924
 40
8.036731721038924
 40
8.036731721038924
 10
374.2370167770959
 20
249.6702458725499
 30
0.0
 10
374.2171853964182
 20
249.9795322660925
 30
0.0
 10
374.1834970167665
 20
250.5049297468253
 30
0.0
 10
373.1133900063478
 20
251.6092288818558
 30
0.0
 10
371.3250797428436
 20
252.8271187105251
 30
0.0
 10
369.4841407399153
 20
253.9952561029481
 30
0.0
 10
368.449224711826
 20
254.585547064305
 30
0.0
 10
368.2769303163377
 20
254.6824021230636
 30
0.0
  0
LINE
  5
1383
100
AcDbEntity
  8
VHH-025
100
AcDbLine
 10
374.599672
 20
250.277601
 30
0.0
 11
374.162862
 21
250.275893
 31
0.0
  0
LINE
  5
1384
100
AcDbEntity
  8
VHH-025
100
AcDbLine
 10
368.492824
 20
248.500004
 30
0.0
 11
368.158417
 21
258.076179
 31
0.0
  0
LWPOLYLINE
  5
1385
100
AcDbEntity
  8
VHH-025
100
AcDbPolyline
 90
        5
 70
   128
 43
0.0
 10
356.643541
 20
265.871072
 42
0.106775
 10
354.550446
 20
268.14712
 42
0.154846
 10
352.492824
 20
268.800004
 42
0.154846
 10
350.435203
 20
268.14712
 42
0.096835
 10
348.492824
 20
266.116632
 42
0.073203
  0
LWPOLYLINE
  5
1386
100
AcDbEntity
  8
VHH-025
100
AcDbPolyline
 90
        2
 70
   128
 43
0.0
 10
348.492824
 20
266.116632
 42
0.009838
 10
348.342108
 20
265.871072
 42
0.073203
  0
LINE
  5
1387
100
AcDbEntity
  8
VHH-025
100
AcDbLine
 10
349.785197
 20
266.522747
 30
0.0
 11
355.200451
 21
266.522747
 31
0.0
  0
LINE
  5
1388
100
AcDbEntity
  8
VHH-025
100
AcDbLine
 10
348.991856
 20
265.745067
 30
0.0
 11
349.785197
 21
266.522747
 31
0.0
  0
LINE
  5
1389
100
AcDbEntity
  8
VHH-025
100
AcDbLine
 10
355.993793
 20
265.745067
 30
0.0
 11
355.200451
 21
266.522747
 31
0.0
  0
LWPOLYLINE
  5
13E0
100
AcDbEntity
  8
VHH-025
100
AcDbPolyline
 90
       12
 70
     0
 43
0.0
 10
431.381653
 20
509.322402
 10
431.128894
 20
505.187842
 10
430.558264
 20
500.609171
 10
428.543836
 20
490.410015
 10
424.309008
 20
475.584507
 10
418.866178
 20
461.075906
 10
412.322174
 20
447.406734
 10
411.470294
 20
445.87462
 10
410.237282
 20
443.786616
 10
406.766281
 20
438.383961
 10
405.428357
 20
436.29298
 10
405.037314
 20
435.6309
  0
LWPOLYLINE
  5
13E1
100
AcDbEntity
  8
VHH-025
100
AcDbPolyline
 90
       43
 70
     0
 43
0.0
 10
393.891509
 20
435.626999
 10
393.910129
 20
435.670381
 10
394.268958
 20
436.440859
 10
395.46435
 20
438.827589
 10
396.973723
 20
441.7931
 10
398.40439
 20
444.667975
 10
398.98479
 20
445.890852
 10
399.554269
 20
447.10115
 10
399.964308
 20
447.974219
 10
400.712648
 20
449.571815
 10
401.215671
 20
450.649216
 10
401.889858
 20
452.098335
 10
402.485723
 20
453.384564
 10
403.08058
 20
454.674297
 10
403.767897
 20
456.172301
 10
404.282099
 20
457.298977
 10
405.058615
 20
459.011051
 10
405.491316
 20
459.971076
 10
406.70208
 20
462.682786
 10
407.905424
 20
465.419888
 10
409.092467
 20
468.167946
 10
410.257209
 20
470.918811
 10
411.396553
 20
473.671275
 10
412.507593
 20
476.425198
 10
413.584832
 20
479.174624
 10
414.619949
 20
481.906359
 10
415.604225
 20
484.605325
 10
416.531169
 20
487.261587
 10
416.850563
 20
488.208298
 10
417.39686
 20
489.872479
 10
417.751735
 20
490.988517
 10
418.197857
 20
492.437923
 10
418.573122
 20
493.704505
 10
418.928877
 20
494.953498
 10
419.309958
 20
496.35529
 10
419.582479
 20
497.407767
 10
419.955405
 20
498.934908
 10
420.150838
 20
499.786185
 10
420.627626
 20
502.077695
 10
421.008123
 20
504.277746
 10
421.287683
 20
506.385155
 10
421.460405
 20
508.396084
 10
421.503824
 20
509.339293
  0
LWPOLYLINE
  5
13E2
100
AcDbEntity
  8
VHH-025
100
AcDbPolyline
 90
       33
 70
     0
 43
0.0
 10
384.84249
 20
435.626999
 10
384.857011
 20
435.670375
 10
385.13694
 20
436.44084
 10
386.070046
 20
438.827528
 10
387.249646
 20
441.793
 10
388.370382
 20
444.667862
 10
388.826856
 20
445.890737
 10
389.276558
 20
447.101025
 10
390.196429
 20
449.571671
 10
391.1375
 20
452.098176
 10
392.094978
 20
454.674128
 10
393.066193
 20
457.298802
 10
394.048217
 20
459.970897
 10
395.035664
 20
462.682606
 10
396.020826
 20
465.419711
 10
396.996032
 20
468.167774
 10
397.955957
 20
470.918646
 10
398.897681
 20
473.671118
 10
399.818472
 20
476.425052
 10
400.713465
 20
479.17449
 10
401.575443
 20
481.906238
 10
402.396835
 20
484.605217
 10
403.171918
 20
487.261493
 10
403.897122
 20
489.872399
 10
404.569292
 20
492.437856
 10
405.183738
 20
494.953445
 10
405.733953
 20
497.407726
 10
406.213097
 20
499.786155
 10
406.61559
 20
502.077675
 10
406.937205
 20
504.277734
 10
407.173787
 20
506.385149
 10
407.32012
 20
508.396083
 10
407.356939
 20
509.339362
  0
LINE
  5
13E3
100
AcDbEntity
  8
VHH-025
100
AcDbLine
 10
449.290114
 20
397.499989
 30
0.0
 11
449.290114
 21
511.7
 31
0.0
  0
ARC
  5
13E4
100
AcDbEntity
  8
VHH-025
100
AcDbCircle
 10
419.380106
 20
363.927007
 30
0.0
 40
43.0
100
AcDbArc
 50
63.262545
 51
84.540298
  0
LINE
  5
13E5
100
AcDbEntity
  8
VHH-025
100
AcDbLine
 10
459.801069
 20
397.499982
 30
0.0
 11
375.75351
 21
397.500035
 31
0.0
  0
LINE
  5
13E6
100
AcDbEntity
  8
VHH-025
100
AcDbLine
 10
375.676242
 20
395.674345
 30
0.0
 11
456.757202
 21
395.604646
 31
0.0
  0
LINE
  5
13E7
100
AcDbEntity
  8
VHH-025
100
AcDbLine
 10
396.175809
 20
399.500164
 30
0.0
 11
442.605004
 21
399.500235
 31
0.0
  0
LINE
  5
13E8
100
AcDbEntity
  8
VHH-025
100
AcDbLine
 10
443.682823
 20
399.097453
 30
0.0
 11
395.061136
 21
399.097379
 31
0.0
  0
LINE
  5
13E9
100
AcDbEntity
  8
VHH-025
100
AcDbLine
 10
394.021821
 20
397.701549
 30
0.0
 11
444.722143
 21
397.701626
 31
0.0
  0
LINE
  5
13EA
100
AcDbEntity
  8
VHH-025
100
AcDbLine
 10
462.556245
 20
386.5
 30
0.0
 11
375.948151
 21
386.5
 31
0.0
  0
LINE
  5
13EB
100
AcDbEntity
  8
VHH-025
100
AcDbLine
 10
375.915077
 20
387.500032
 30
0.0
 11
463.616804
 21
387.499983
 31
0.0
  0
LINE
  5
13EC
100
AcDbEntity
  8
VHH-025
100
AcDbLine
 10
423.471368
 20
406.731932
 30
0.0
 11
419.376223
 21
406.731932
 31
0.0
  0
LINE
  5
13ED
100
AcDbEntity
  8
VHH-025
100
AcDbLine
 10
415.281077
 20
406.731932
 30
0.0
 11
419.376223
 21
406.731932
 31
0.0
  0
SPLINE
  5
13EE
100
AcDbEntity
  8
VHH-025
100
AcDbSpline
210
0.0
220
0.0
230
-1.0
 70
     8
 71
     3
 72
    13
 73
     9
 74
     0
 42
0.0000001
 43
0.0000001
 40
0.0209144496635199
 40
0.0209144496635199
 40
0.0209144496635199
 40
0.0209144496635199
 40
3.296463989968982
 40
8.729114775329056
 40
13.2640661055983
 40
17.20111388624939
 40
20.55573193448323
 40
21.91587199566444
 40
21.91587199566444
 40
21.91587199566444
 40
21.91587199566444
 10
352.4892174604747
 20
403.0670801867686
 30
0.0
 10
353.580729463757
 20
403.0389388192602
 30
0.0
 10
356.4825566988611
 20
402.9638813566411
 30
0.0
 10
360.8904426623694
 20
402.6953103872697
 30
0.0
 10
365.5038713641561
 20
402.2480066770936
 30
0.0
 10
369.4340380199528
 20
401.9386171315595
 30
0.0
 10
372.3056302121267
 20
401.6715865250903
 30
0.0
 10
373.8715787860755
 20
401.5385657952333
 30
0.0
 10
374.3233324794246
 20
401.5001912234206
 30
0.0
  0
SPLINE
  5
13EF
100
AcDbEntity
  8
VHH-025
100
AcDbSpline
210
0.0
220
0.0
230
-1.0
 70
     8
 71
     3
 72
    12
 73
     8
 74
     6
 42
0.0000001
 43
0.0000001
 44
0.0000000001
 40
0.0
 40
0.0
 40
0.0
 40
0.0
 40
2.81843646764347
 40
7.77665889482409
 40
10.89635099230827
 40
14.08080739443996
 40
16.8382136326045
 40
16.8382136326045
 40
16.8382136326045
 40
16.8382136326045
 10
373.2241439476829
 20
400.5504793369913
 30
0.0
 10
372.2898709007259
 20
400.649246576886
 30
0.0
 10
369.71201509868
 20
400.9217661612233
 30
0.0
 10
366.0991466192832
 20
401.2951948630846
 30
0.0
 10
362.3595939843844
 20
401.6292885001973
 30
0.0
 10
359.3446749044959
 20
401.8159050580873
 30
0.0
 10
357.3690441864619
 20
401.9563032898584
 30
0.0
 10
356.4522245297311
 20
402.0214570949105
 30
0.0
 11
373.2241439476829
 21
400.5504793369913
 31
0.0
 11
370.4212425448395
 21
400.8459921930247
 31
0.0
 11
365.488112265838
 21
401.3441842120251
 31
0.0
 11
362.3800548658391
 21
401.6133644145242
 31
0.0
 11
359.2029674818031
 21
401.8298784585881
 31
0.0
 11
356.4522245297311
 21
402.0214570949105
 31
0.0
  0
LINE
  5
13F0
100
AcDbEntity
  8
VHH-025
100
AcDbLine
 10
356.82795
 20
419.032054
 30
0.0
 11
403.890122
 21
427.330385
 31
0.0
  0
SPLINE
  5
13F1
100
AcDbEntity
  8
VHH-025
100
AcDbSpline
210
0.0
220
0.0
230
-1.0
 70
     8
 71
     3
 72
    10
 73
     6
 74
     4
 42
0.0000001
 43
0.0000001
 44
0.0000000001
 40
0.0
 40
0.0
 40
0.0
 40
0.0
 40
0.7389541528466666
 40
1.053804214992081
 40
1.581800210478961
 40
1.581800210478961
 40
1.581800210478961
 40
1.581800210478961
 10
355.4220895861026
 20
402.9823240389309
 30
0.0
 10
355.6872118626837
 20
402.9627279298451
 30
0.0
 10
356.0652961747797
 20
402.9347824040334
 30
0.0
 10
356.3803090568855
 20
402.475788999174
 30
0.0
 10
356.4245254366156
 20
402.1964483898793
 30
0.0
 10
356.4522245297311
 20
402.0214570949105
 30
0.0
 11
355.4220895861026
 21
402.9823240389309
 31
0.0
 11
356.1347393312671
 21
402.7869178447449
 31
0.0
 11
356.3206088793876
 21
402.532785846141
 31
0.0
 11
356.4522245297311
 21
402.0214570949105
 31
0.0
  0
SPLINE
  5
13F2
100
AcDbEntity
  8
VHH-025
100
AcDbSpline
210
0.0
220
0.0
230
-1.0
 70
     8
 71
     3
 72
    10
 73
     6
 74
     4
 42
0.0000001
 43
0.0000001
 44
0.0000000001
 40
0.0
 40
0.0
 40
0.0
 40
0.0
 40
0.7389541528466666
 40
1.053804214991007
 40
1.581800210478341
 40
1.581800210478341
 40
1.581800210478341
 40
1.581800210478341
 10
349.5563453348431
 20
402.9823240389309
 30
0.0
 10
349.2912230582615
 20
402.9627279298455
 30
0.0
 10
348.9131387461652
 20
402.9347824040342
 30
0.0
 10
348.5981258640627
 20
402.475788999173
 30
0.0
 10
348.5539094843311
 20
402.1964483898791
 30
0.0
 10
348.5262103912146
 20
402.0214570949105
 30
0.0
 11
349.5563453348431
 21
402.9823240389309
 31
0.0
 11
348.8436955896786
 21
402.7869178447449
 31
0.0
 11
348.6578260415599
 21
402.532785846141
 31
0.0
 11
348.5262103912146
 21
402.0214570949105
 31
0.0
  0
SPLINE
  5
13F3
100
AcDbEntity
  8
VHH-025
100
AcDbSpline
210
0.0
220
0.0
230
-1.0
 70
     8
 71
     3
 72
    10
 73
     6
 74
     0
 42
0.0000001
 43
0.0000001
 40
0.0
 40
0.0
 40
0.0
 40
0.0
 40
1.375284005263003
 40
2.605605434342426
 40
3.964137258047949
 40
3.964137258047949
 40
3.964137258047949
 40
3.964137258047949
 10
356.4522245297311
 20
402.0214570949105
 30
0.0
 10
355.9940516053093
 20
402.0365111812538
 30
0.0
 10
355.1259997286261
 20
402.0650325695901
 30
0.0
 10
353.8050351947777
 20
402.1024993161877
 30
0.0
 10
352.9420857960585
 20
402.1026516535598
 30
0.0
 10
352.4892174604729
 20
402.1004469203694
 30
0.0
  0
SPLINE
  5
13F4
100
AcDbEntity
  8
VHH-025
100
AcDbSpline
210
0.0
220
0.0
230
-1.0
 70
     8
 71
     3
 72
    10
 73
     6
 74
     0
 42
0.0000001
 43
0.0000001
 40
0.0
 40
0.0
 40
0.0
 40
0.0
 40
1.375284005263003
 40
2.605605434342426
 40
3.964137258047949
 40
3.964137258047949
 40
3.964137258047949
 40
3.964137258047949
 10
348.5262103912146
 20
402.0214570949105
 30
0.0
 10
348.9843833156364
 20
402.0365111812538
 30
0.0
 10
349.8524351923215
 20
402.0650325695901
 30
0.0
 10
351.1733997261699
 20
402.1024993161877
 30
0.0
 10
352.036349124889
 20
402.1026516535598
 30
0.0
 10
352.4892174604729
 20
402.1004469203694
 30
0.0
  0
LINE
  5
13F5
100
AcDbEntity
  8
VHH-025
100
AcDbLine
 10
355.992825
 20
418.3
 30
0.0
 11
356.135573
 21
418.547246
 31
0.0
  0
ARC
  5
13F6
100
AcDbEntity
  8
VHH-025
100
AcDbCircle
 10
357.001598
 20
418.047246
 30
0.0
 40
1.0
100
AcDbArc
 50
100.0
 51
150.0
  0
LINE
  5
13F7
100
AcDbEntity
  8
VHH-025
100
AcDbLine
 10
348.792825
 20
418.3
 30
0.0
 11
348.650078
 21
418.547246
 31
0.0
  0
ARC
  5
13F8
100
AcDbEntity
  8
VHH-025
100
AcDbCircle
 10
347.784052
 20
418.047246
 30
0.0
 40
1.0
100
AcDbArc
 50
30.0
 51
80.0
  0
LINE
  5
13F9
100
AcDbEntity
  8
VHH-025
100
AcDbLine
 10
355.992825
 20
418.3
 30
0.0
 11
348.792825
 21
418.3
 31
0.0
  0
LWPOLYLINE
  5
13FA
100
AcDbEntity
  8
VHH-025
100
AcDbPolyline
 90
        6
 70
     0
 43
0.0
 10
393.801912
 20
435.042903
 10
397.772268
 20
435.042867
 10
400.91928
 20
435.042718
 10
402.882884
 20
435.042573
 10
404.203847
 20
435.042451
 10
404.921256
 20
435.042378
  0
SPLINE
  5
13FB
100
AcDbEntity
  8
VHH-025
100
AcDbSpline
210
0.0
220
0.0
230
-1.0
 70
     8
 71
     3
 72
    12
 73
     8
 74
     6
 42
0.0000001
 43
0.0000001
 44
0.0000000001
 40
0.0
 40
0.0
 40
0.0
 40
0.0
 40
0.5183577417995328
 40
0.8374683632360358
 40
1.411464127918153
 40
2.281595754332861
 40
3.151727380755593
 40
3.151727380755593
 40
3.151727380755593
 40
3.151727380755593
 10
396.3615964913233
 20
399.5001655304872
 30
0.0
 10
396.1882625485254
 20
399.5103777604095
 30
0.0
 10
395.9082210218681
 20
399.5268768281158
 30
0.0
 10
395.4434736533422
 20
399.4190093208771
 30
0.0
 10
394.9555290742193
 20
399.0546962122121
 30
0.0
 10
394.5550695077587
 20
398.3888333916283
 30
0.0
 10
394.1995704170575
 20
397.9306439700261
 30
0.0
 10
394.021820871706
 20
397.701549259224
 30
0.0
 11
396.3615964913233
 21
399.5001655304872
 31
0.0
 11
395.8432387895673
 21
399.4999617813359
 31
0.0
 11
395.5333886129747
 21
399.4236436525648
 31
0.0
 11
395.061136245059
 21
399.0973786699646
 31
0.0
 11
394.5414785583825
 21
398.3994639645993
 31
0.0
 11
394.021820871706
 21
397.701549259224
 31
0.0
  0
SPLINE
  5
13FC
100
AcDbEntity
  8
VHH-025
100
AcDbSpline
210
0.0
220
0.0
230
-1.0
 70
     8
 71
     3
 72
    11
 73
     7
 74
     5
 42
0.0000001
 43
0.0000001
 44
0.0000000001
 40
0.0
 40
0.0
 40
0.0
 40
0.0
 40
0.568037194633695
 40
1.463279599702922
 40
2.456250895123692
 40
4.878568014843552
 40
4.878568014843552
 40
4.878568014843552
 40
4.878568014843552
 10
378.14567433114
 20
399.7211383457629
 30
0.0
 10
378.1496880535746
 20
399.909366838842
 30
0.0
 10
378.1600275141115
 20
400.3942486680735
 30
0.0
 10
377.745193996096
 20
401.2384783989703
 30
0.0
 10
376.1895622754268
 20
401.3392451567344
 30
0.0
 10
375.0851058907906
 20
401.434469582272
 30
0.0
 10
374.3017624997528
 20
401.5020081699863
 30
0.0
 11
378.14567433114
 21
399.7211383457629
 31
0.0
 11
378.1189158778879
 21
400.2885449369009
 31
0.0
 11
377.6802033594476
 21
401.0689232361878
 31
0.0
 11
376.7162279767226
 21
401.3071320836929
 31
0.0
 11
374.3017624997528
 21
401.5020081699863
 31
0.0
  0
LWPOLYLINE
  5
13FD
100
AcDbEntity
  8
VHH-025
100
AcDbPolyline
 90
        6
 70
     0
 43
0.0
 10
384.772425
 20
435.042905
 10
385.889698
 20
435.042892
 10
389.153808
 20
435.04286
 10
391.328509
 20
435.042869
 10
392.797812
 20
435.042889
 10
393.801912
 20
435.042903
  0
ELLIPSE
  5
13FE
100
AcDbEntity
  8
VHH-025
100
AcDbEllipse
 10
385.385127
 20
435.152596
 30
0.0
 11
0.0000057216521182
 21
0.999999999975374
 31
0.0
210
0.0
220
0.0
230
1.0
 40
0.616421
 41
1.076513383701558
 42
1.680712066550641
  0
ELLIPSE
  5
13FF
100
AcDbEntity
  8
VHH-025
100
AcDbEllipse
 10
394.585473
 20
435.152594
 30
0.0
 11
-0.0000043170876913
 21
0.9999999999737386
 31
0.0
210
0.0
220
0.0
230
1.0
 40
0.788319
 41
1.076504944317234
 42
1.680705136365019
  0
LWPOLYLINE
  5
1400
100
AcDbEntity
  8
VHH-025
100
AcDbPolyline
 90
        3
 70
     0
 43
0.0
 10
405.037314
 20
435.6309
 10
404.934117
 20
435.345546
 10
404.921256
 20
435.042378
  0
LINE
  5
1401
100
AcDbEntity
  8
VHH-025
100
AcDbLine
 10
404.921256
 20
435.042378
 30
0.0
 11
405.530757
 21
429.519382
 31
0.0
  0
LINE
  5
1402
100
AcDbEntity
  8
VHH-025
100
AcDbLine
 10
398.807599
 20
401.2
 30
0.0
 11
377.224629
 21
401.2
 31
0.0
  0
LINE
  5
1403
100
AcDbEntity
  8
VHH-025
100
AcDbLine
 10
394.541846
 20
398.4
 30
0.0
 11
377.981752
 21
398.4
 31
0.0
  0
LINE
  5
1404
100
AcDbEntity
  8
VHH-025
100
AcDbLine
 10
374.126055
 20
401.500191
 30
0.0
 11
399.01459
 21
401.500157
 31
0.0
  0
LINE
  5
1405
100
AcDbEntity
  8
VHH-025
100
AcDbLine
 10
378.172501
 20
397.5
 30
0.0
 11
378.145674
 21
399.721138
 31
0.0
  0
LINE
  5
1406
100
AcDbEntity
  8
VHH-025
100
AcDbLine
 10
374.085848
 20
400.511953
 30
0.0
 11
375.795197
 21
400.451988
 31
0.0
  0
ARC
  5
1407
100
AcDbEntity
  8
VHH-025
100
AcDbCircle
 10
401.376223
 20
399.650106
 30
0.0
 40
3.0
100
AcDbArc
 50
116.737455
 51
180.0
  0
ARC
  5
1408
100
AcDbEntity
  8
VHH-025
100
AcDbCircle
 10
403.542825
 20
429.3
 30
0.0
 40
2.0
100
AcDbArc
 50
280.0
 51
6.297506
  0
ARC
  5
1409
100
AcDbEntity
  8
VHH-025
100
AcDbCircle
 10
419.372339
 20
363.927007
 30
0.0
 40
43.0
100
AcDbArc
 50
95.459702
 51
116.737455
  0
LINE
  5
140A
100
AcDbEntity
  8
VHH-025
100
AcDbLine
 10
357.447449
 20
386.5
 30
0.0
 11
357.071045
 21
401.962593
 31
0.0
  0
LINE
  5
140B
100
AcDbEntity
  8
VHH-025
100
AcDbLine
 10
347.530986
 20
386.5
 30
0.0
 11
347.90739
 21
401.962593
 31
0.0
  0
SPLINE
  5
140C
100
AcDbEntity
  8
VHH-025
100
AcDbSpline
210
0.0
220
0.0
230
-1.0
 70
     8
 71
     3
 72
    11
 73
     7
 74
     5
 42
0.0000001
 43
0.0000001
 44
0.0000000001
 40
0.0
 40
0.0
 40
0.0
 40
0.0
 40
1.000366720787654
 40
4.132811894237304
 40
8.265836390237502
 40
11.00558801193081
 40
11.00558801193081
 40
11.00558801193081
 40
11.00558801193081
 10
376.1337196837785
 20
386.499999942584
 30
0.0
 10
376.1252372137935
 20
386.8333536056441
 30
0.0
 10
376.0901936121646
 20
388.2105365477129
 30
0.0
 10
376.0060739244577
 20
390.9639993428762
 30
0.0
 10
375.8085905568122
 20
394.297176436355
 30
0.0
 10
375.9070459399131
 20
396.5871596121562
 30
0.0
 10
375.9462940240782
 20
397.5000345570274
 30
0.0
 11
376.1337196837785
 21
386.499999942584
 31
0.0
 11
376.1078612520768
 21
387.5000324008419
 31
0.0
 11
376.0033438981527
 21
390.6307334225616
 31
0.0
 11
375.8657528427511
 21
394.7614670360994
 31
0.0
 11
375.9462940240782
 21
397.5000345570274
 31
0.0
  0
LINE
  5
140D
100
AcDbEntity
  8
VHH-025
100
AcDbLine
 10
374.708557
 20
386.5
 30
0.0
 11
374.085848
 21
400.511953
 31
0.0
  0
SPLINE
  5
140E
100
AcDbEntity
  8
VHH-025
100
AcDbSpline
210
0.0
220
0.0
230
-1.0
 70
     8
 71
     3
 72
    10
 73
     6
 74
     4
 42
0.0000001
 43
0.0000001
 44
0.0000000001
 40
0.0
 40
0.0
 40
0.0
 40
0.0
 40
0.5656918030217481
 40
1.131091204875098
 40
1.98428193914176
 40
1.98428193914176
 40
1.98428193914176
 40
1.98428193914176
 10
451.8885630126597
 20
396.6648841375213
 30
0.0
 10
451.7625908138521
 20
396.8055392487332
 30
0.0
 10
451.5107115301701
 20
397.0867767677546
 30
0.0
 10
450.932506283289
 20
397.4445914560399
 30
0.0
 10
450.4530179476131
 20
397.4791477389572
 30
0.0
 10
450.1646365506394
 20
397.4999311207425
 30
0.0
 11
451.8885630126597
 21
396.6648841375213
 31
0.0
 11
451.4912082645633
 21
397.0675209716178
 31
0.0
 11
451.0058629337227
 21
397.357549234805
 31
0.0
 11
450.1646365506394
 21
397.4999311207425
 31
0.0
  0
SPLINE
  5
140F
100
AcDbEntity
  8
VHH-025
100
AcDbSpline
210
0.0
220
0.0
230
-1.0
 70
     8
 71
     3
 72
    15
 73
    11
 74
     9
 42
0.0000001
 43
0.0000001
 44
0.0000000001
 40
0.0
 40
0.0
 40
0.0
 40
0.0
 40
0.4359904243240473
 40
0.794812201045396
 40
1.153633987719484
 40
1.512391879192243
 40
2.670988118641679
 40
3.240700171742821
 40
3.620272909986447
 40
4.189922926749681
 40
4.189922926749681
 40
4.189922926749681
 40
4.189922926749681
 10
449.2928253419022
 20
401.5000890768947
 30
0.0
 10
449.1461029797318
 20
401.4818414903492
 30
0.0
 10
448.8786275557015
 20
401.4485760707055
 30
0.0
 10
448.5596678579232
 20
401.2124678438884
 30
0.0
 10
448.3495584837991
 20
400.9110393409232
 30
0.0
 10
448.2344948771977
 20
400.286014036946
 30
0.0
 10
448.284987263618
 20
399.5892982105161
 30
0.0
 10
448.1485018365045
 20
398.8929363795025
 30
0.0
 10
447.936554358651
 20
398.427797471839
 30
0.0
 10
447.7280746543254
 20
398.1873199087407
 30
0.0
 10
447.6029612745232
 20
398.0430038911067
 30
0.0
 11
449.2928253419022
 21
401.5000890768947
 31
0.0
 11
448.8670184043412
 21
401.4064082249173
 31
0.0
 11
448.5742515381635
 21
401.1989458680477
 31
0.0
 11
448.3735654045495
 21
400.9014930980706
 31
0.0
 11
448.2908022526726
 21
400.5524121828297
 31
0.0
 11
448.230153699872
 21
399.3954044045026
 31
0.0
 11
448.1106197844319
 21
398.8383734659469
 31
0.0
 11
447.950920116532
 21
398.4940313690572
 31
0.0
 11
447.6029612745232
 21
398.0430038911067
 31
0.0
  0
SPLINE
  5
1410
100
AcDbEntity
  8
VHH-025
100
AcDbSpline
210
0.0
220
0.0
230
-1.0
 70
     8
 71
     3
 72
    12
 73
     8
 74
     6
 42
0.0000001
 43
0.0000001
 44
0.0000000001
 40
0.0
 40
0.0
 40
0.0
 40
0.0
 40
0.5183577418013518
 40
0.8374683632360886
 40
1.411464127919703
 40
2.281595754333324
 40
3.151727380757142
 40
3.151727380757142
 40
3.151727380757142
 40
3.151727380757142
 10
442.3823672440276
 20
399.5001655304872
 30
0.0
 10
442.555701186826
 20
399.5103777604097
 30
0.0
 10
442.8357427134834
 20
399.5268768281162
 30
0.0
 10
443.3004900820093
 20
399.4190093208762
 30
0.0
 10
443.7884346611337
 20
399.0546962122136
 30
0.0
 10
444.1888942275916
 20
398.388833391627
 30
0.0
 10
444.5443933182944
 20
397.9306439700259
 30
0.0
 10
444.7221428636466
 20
397.701549259224
 30
0.0
 11
442.3823672440276
 21
399.5001655304872
 31
0.0
 11
442.9007249457854
 21
399.4999617813359
 31
0.0
 11
443.2105751223762
 21
399.4236436525648
 31
0.0
 11
443.6828274902937
 21
399.0973786699646
 31
0.0
 11
444.2024851769684
 21
398.3994639645993
 31
0.0
 11
444.7221428636466
 21
397.701549259224
 31
0.0
  0
LINE
  5
1411
100
AcDbEntity
  8
VHH-025
100
AcDbLine
 10
439.737899
 20
401.500102
 30
0.0
 11
449.290114
 21
401.500089
 31
0.0
  0
ARC
  5
1412
100
AcDbEntity
  8
VHH-025
100
AcDbCircle
 10
437.376223
 20
399.650106
 30
0.0
 40
3.0
100
AcDbArc
 50
0.0
 51
63.262545
  0
SPLINE
  5
1413
100
AcDbEntity
  8
VHH-025
100
AcDbSpline
210
0.0
220
0.0
230
-1.0
 70
     8
 71
     3
 72
    11
 73
     7
 74
     5
 42
0.0000001
 43
0.0000001
 44
0.0000000001
 40
0.0
 40
0.0
 40
0.0
 40
0.0
 40
0.6345840196798191
 40
1.890391237942621
 40
2.537599161340877
 40
3.47078441374853
 40
3.47078441374853
 40
3.47078441374853
 40
3.47078441374853
 10
462.563156404688
 20
395.8837667532739
 30
0.0
 10
462.5260895536294
 20
396.0954931145665
 30
0.0
 10
462.4156694228257
 20
396.7262144151612
 30
0.0
 10
461.6431926178229
 20
397.3102381639795
 30
0.0
 10
460.713069049209
 20
397.4662294213542
 30
0.0
 10
460.1855651460303
 20
397.4874513729681
 30
0.0
 10
459.8740864136679
 20
397.4999824396522
 30
0.0
 11
462.563156404688
 21
395.8837667532739
 31
0.0
 11
462.3995519288573
 21
396.496898430421
 31
0.0
 11
461.4384240040735
 21
397.3051588350195
 31
0.0
 11
460.805308424141
 21
397.4394821708779
 31
0.0
 11
459.8740864136679
 21
397.4999824396522
 31
0.0
  0
SPLINE
  5
1414
100
AcDbEntity
  8
VHH-025
100
AcDbSpline
210
0.0
220
0.0
230
-1.0
 70
     8
 71
     3
 72
    14
 73
    10
 74
     8
 42
0.0000001
 43
0.0000001
 44
0.0000000001
 40
0.0
 40
0.0
 40
0.0
 40
0.0
 40
3.191871827524154
 40
5.335857413240221
 40
8.376690508344552
 40
10.96293588672734
 40
13.24458335793563
 40
15.17453521347432
 40
16.06516229607342
 40
16.06516229607342
 40
16.06516229607342
 40
16.06516229607342
 10
456.9703227027867
 20
386.0001236641578
 30
0.0
 10
456.9718815384621
 20
384.9361692513919
 30
0.0
 10
456.9744874466389
 20
383.157554899853
 30
0.0
 10
456.9958848606157
 20
380.3653456421152
 30
0.0
 10
457.0478364992371
 20
377.77556719262
 30
0.0
 10
457.1395327038636
 20
375.1402826607729
 30
0.0
 10
457.2715164987873
 20
372.8793974753955
 30
0.0
 10
457.4165297272725
 20
371.1808284724773
 30
0.0
 10
457.6110156282076
 20
370.2604699642577
 30
0.0
 10
457.6724265705552
 20
369.9698572102456
 30
0.0
 11
456.9703227027867
 21
386.0001236641578
 31
0.0
 11
456.9789439807491
 21
382.8082634797342
 31
0.0
 11
456.9972562327539
 21
380.6643560999286
 31
0.0
 11
457.0589422942112
 21
377.6241487481015
 31
0.0
 11
457.153810962146
 21
375.0396439419442
 31
0.0
 11
457.2894771116707
 21
372.762033378493
 31
0.0
 11
457.4995920403844
 21
370.8435532817943
 31
0.0
 11
457.6724265705552
 21
369.9698572102456
 31
0.0
  0
LINE
  5
1415
100
AcDbEntity
  8
VHH-025
100
AcDbLine
 10
463.47325
 20
385.985139
 30
0.0
 11
460.986339
 21
372.632899
 31
0.0
  0
SPLINE
  5
1416
100
AcDbEntity
  8
VHH-025
100
AcDbSpline
210
0.0
220
0.0
230
-1.0
 70
     8
 71
     3
 72
    14
 73
    10
 74
     8
 42
0.0000001
 43
0.0000001
 44
0.0000000001
 40
0.0
 40
0.0
 40
0.0
 40
0.0
 40
0.2762442808524049
 40
0.5524885617056455
 40
1.103680952616389
 40
2.766577242774674
 40
3.871679079314476
 40
4.976969695298992
 40
5.504499993160161
 40
5.504499993160161
 40
5.504499993160161
 40
5.504499993160161
 10
460.9863390023265
 20
372.6328991834275
 30
0.0
 10
460.9430984642548
 20
372.5517775726247
 30
0.0
 10
460.8566173881113
 20
372.3895343510188
 30
0.0
 10
460.7064350098196
 20
372.0493763341217
 30
0.0
 10
460.0623899521853
 20
371.4988278862006
 30
0.0
 10
459.3256157645909
 20
370.6692289969808
 30
0.0
 10
458.7490278633474
 20
369.4935171501912
 30
0.0
 10
458.5870735271355
 20
368.5903837407958
 30
0.0
 10
458.4938213268583
 20
368.0545153142661
 30
0.0
 10
458.4636934906875
 20
367.881387429717
 30
0.0
 11
460.9863390023265
 21
372.6328991834275
 31
0.0
 11
460.8594428129536
 21
372.3875254688077
 31
0.0
 11
460.7325466235788
 21
372.142151754188
 31
0.0
 11
460.3549248675326
 21
371.740636049441
 31
0.0
 11
459.2748380349831
 21
370.4762640685844
 31
0.0
 11
458.7986212689584
 21
369.4790340746108
 31
0.0
 11
458.5544248832056
 21
368.4010565836729
 31
0.0
 11
458.4636934906875
 21
367.881387429717
 31
0.0
  0
SPLINE
  5
1417
100
AcDbEntity
  8
VHH-025
100
AcDbSpline
210
0.0
220
0.0
230
1.0
 70
     8
 71
     3
 72
     9
 73
     5
 74
     3
 42
0.0000001
 43
0.0000001
 44
0.0000000001
 40
0.0
 40
0.0
 40
0.0
 40
0.0
 40
0.9804242998629113
 40
1.248549817030965
 40
1.248549817030965
 40
1.248549817030965
 40
1.248549817030965
 10
462.5562451431441
 20
386.5000000000004
 30
0.0
 10
463.0115137493809
 20
386.512038884659
 30
0.0
 10
463.5912887866748
 20
386.5273701521926
 30
0.0
 10
463.4941175558484
 20
386.0809973494746
 30
0.0
 10
463.4732500773034
 20
385.9851389888822
 30
0.0
 11
462.5562451431441
 21
386.5000000000004
 31
0.0
 11
463.5046335305933
 21
386.2514214926564
 31
0.0
 11
463.4732500773034
 21
385.9851389888822
 31
0.0
  0
LINE
  5
1418
100
AcDbEntity
  8
VHH-025
100
AcDbLine
 10
461.394686
 20
387.499973
 30
0.0
 11
461.482316
 21
386.5
 31
0.0
  0
LINE
  5
1419
100
AcDbEntity
  8
VHH-025
100
AcDbLine
 10
452.643674
 20
387.499927
 30
0.0
 11
452.259339
 21
395.6046
 31
0.0
  0
LINE
  5
141A
100
AcDbEntity
  8
VHH-025
100
AcDbLine
 10
457.099617
 20
387.499986
 30
0.0
 11
456.757202
 21
395.604646
 31
0.0
  0
LINE
  5
141B
100
AcDbEntity
  8
VHH-025
100
AcDbLine
 10
463.616804
 20
387.499983
 30
0.0
 11
462.563156
 21
395.883767
 31
0.0
  0
LINE
  5
141C
100
AcDbEntity
  8
VHH-025
100
AcDbLine
 10
424.494423
 20
511.7
 30
0.0
 11
448.078376
 21
511.7
 31
0.0
  0
LWPOLYLINE
  5
141D
100
AcDbEntity
  8
VHH-025
100
AcDbPolyline
 90
        6
 70
     0
 43
0.0
 10
432.381402
 20
510.3
 10
432.379853
 20
510.299999
 10
432.010353
 20
510.228614
 10
431.685585
 20
510.01822
 10
431.465009
 20
509.70028
 10
431.381653
 20
509.322402
  0
LINE
  5
141E
100
AcDbEntity
  8
VHH-025
100
AcDbLine
 10
418.547354
 20
511.7
 30
0.0
 11
421.522458
 21
511.7
 31
0.0
  0
LINE
  5
141F
100
AcDbEntity
  8
VHH-025
100
AcDbLine
 10
412.587945
 20
511.7
 30
0.0
 11
418.547354
 21
511.7
 31
0.0
  0
LINE
  5
1420
100
AcDbEntity
  8
VHH-025
100
AcDbLine
 10
421.522458
 20
511.7
 30
0.0
 11
424.494423
 21
511.7
 31
0.0
  0
SPLINE
  5
1421
100
AcDbEntity
  8
VHH-025
100
AcDbSpline
210
0.0
220
0.0
230
1.0
 70
     8
 71
     3
 72
    13
 73
     9
 74
     7
 42
0.0000001
 43
0.0000001
 44
0.0000000001
 40
0.0
 40
0.0
 40
0.0
 40
0.0
 40
3.28447827110949
 40
5.848013776662059
 40
8.811210366641562
 40
13.31059109350662
 40
22.19952180646464
 40
44.15308546549833
 40
44.15308546549833
 40
44.15308546549833
 40
44.15308546549833
 10
392.395015862553
 20
543.2177674662402
 30
0.0
 10
392.246837631738
 20
542.113658789774
 30
0.0
 10
391.9830062820743
 20
540.1477932190678
 30
0.0
 10
390.1848669283535
 20
537.7197369067369
 30
0.0
 10
387.3203656575877
 20
535.7983223500513
 30
0.0
 10
381.7129425062741
 20
535.6006041290068
 30
0.0
 10
370.0490760829495
 20
535.5017952914072
 30
0.0
 10
359.736687841084
 20
535.4672750274943
 30
0.0
 10
352.3963712955437
 20
535.4427036422426
 30
0.0
 11
392.395015862553
 21
543.2177674662402
 31
0.0
 11
391.6572497624774
 21
540.0172208418385
 31
0.0
 11
390.1693629328283
 21
537.9296607659639
 31
0.0
 11
387.6919271580418
 21
536.3039775210868
 31
0.0
 11
383.2377576567914
 21
535.667737802572
 31
0.0
 11
374.3497075969489
 21
535.5426164474716
 31
0.0
 11
352.3963712955437
 21
535.4427036422426
 31
0.0
  0
SPLINE
  5
1422
100
AcDbEntity
  8
VHH-025
100
AcDbSpline
210
0.0
220
0.0
230
1.0
 70
     8
 71
     3
 72
    13
 73
     9
 74
     0
 42
0.0000001
 43
0.0000001
 40
84.6955679326532
 40
84.6955679326532
 40
84.6955679326532
 40
84.6955679326532
 40
85.81548028374967
 40
86.6565862794542
 40
87.78626872105837
 40
90.14984869879972
 40
105.9639654671869
 40
122.7164926965437
 40
122.7164926965437
 40
122.7164926965437
 40
122.7164926965437
 10
388.895015862553
 20
558.3965874588534
 30
0.0
 10
388.8538793968082
 20
558.0189825823031
 30
0.0
 10
388.7768199844385
 20
557.3572200834919
 30
0.0
 10
388.1734052636175
 20
556.4939072621286
 30
0.0
 10
386.9925991627797
 20
555.5768441575296
 30
0.0
 10
380.2560237671541
 20
555.7075542287343
 30
0.0
 10
368.9215819498485
 20
555.8663416266067
 30
0.0
 10
358.0079665541989
 20
556.0371169104123
 30
0.0
 10
352.3939205045344
 20
556.1249650040713
 30
0.0
  0
LINE
  5
1423
100
AcDbEntity
  8
VHH-025
100
AcDbLine
 10
364.486696
 20
511.7
 30
0.0
 11
370.531746
 21
511.7
 31
0.0
  0
LINE
  5
1424
100
AcDbEntity
  8
VHH-025
100
AcDbLine
 10
367.799141
 20
544.402934
 30
0.0
 11
372.31497
 21
544.402934
 31
0.0
  0
SPLINE
  5
1425
100
AcDbEntity
  8
VHH-025
100
AcDbSpline
210
0.0
220
0.0
230
1.0
 70
    11
 71
     3
 72
    15
 73
    11
 74
     9
 42
0.0000001
 43
0.0000001
 44
0.0000000001
 40
0.0
 40
0.0
 40
0.0
 40
0.0
 40
0.5147647394070095
 40
2.457789820814682
 40
3.944434646996009
 40
5.59179142545904
 40
7.104516291262754
 40
9.337163693806559
 40
10.73578930127726
 40
12.20445453441431
 40
12.20445453441431
 40
12.20445453441431
 40
12.20445453441431
 10
363.9563260531731
 20
549.170136967758
 30
0.0
 10
364.0206269445994
 20
549.3285136722413
 30
0.0
 10
364.3276372433218
 20
550.084697269008
 30
0.0
 10
365.5808651291908
 20
551.0489547029705
 30
0.0
 10
367.4189742624247
 20
550.3234165821634
 30
0.0
 10
367.7520230771509
 20
548.5934052727257
 30
0.0
 10
366.9907090636538
 20
546.894413715399
 30
0.0
 10
364.9018128837534
 20
546.1536387965366
 30
0.0
 10
363.6137628328921
 20
547.702261213843
 30
0.0
 10
363.8402938140955
 20
548.6729414128044
 30
0.0
 10
363.9563260531731
 20
549.170136967758
 30
0.0
 11
363.9563260531731
 21
549.170136967758
 31
0.0
 11
364.1700159505353
 21
549.6384524220216
 31
0.0
 11
365.7746577886127
 21
550.7341125146008
 31
0.0
 11
367.1560187038621
 21
550.1846083189543
 31
0.0
 11
367.5788850996914
 21
548.5924499201678
 31
0.0
 11
366.9304895816394
 21
547.2257313054592
 31
0.0
 11
364.7738726629186
 21
546.6480480964487
 31
0.0
 11
363.857657416368
 21
547.7047898869828
 31
0.0
 11
363.9563260531731
 21
549.170136967758
 31
0.0
  0
LINE
  5
1426
100
AcDbEntity
  8
VHH-025
100
AcDbLine
 10
352.392825
 20
511.7
 30
0.0
 11
364.486696
 21
511.7
 31
0.0
  0
LINE
  5
1427
100
AcDbEntity
  8
VHH-025
100
AcDbLine
 10
347.847123
 20
544.402934
 30
0.0
 11
346.975486
 21
540.205033
 31
0.0
  0
LINE
  5
1428
100
AcDbEntity
  8
VHH-025
100
AcDbLine
 10
354.827038
 20
544.402934
 30
0.0
 11
355.514903
 21
540.205033
 31
0.0
  0
LINE
  5
1429
100
AcDbEntity
  8
VHH-025
100
AcDbLine
 10
352.07939
 20
540.205033
 30
0.0
 11
354.521789
 21
544.402934
 31
0.0
  0
LINE
  5
142A
100
AcDbEntity
  8
VHH-025
100
AcDbLine
 10
352.545766
 20
541.006622
 30
0.0
 11
355.383555
 21
541.006622
 31
0.0
  0
LINE
  5
142B
100
AcDbEntity
  8
VHH-025
100
AcDbLine
 10
349.832478
 20
540.205033
 30
0.0
 11
350.158712
 21
540.205033
 31
0.0
  0
LINE
  5
142C
100
AcDbEntity
  8
VHH-025
100
AcDbLine
 10
347.847123
 20
544.402934
 30
0.0
 11
348.111547
 21
544.402934
 31
0.0
  0
LINE
  5
142D
100
AcDbEntity
  8
VHH-025
100
AcDbLine
 10
354.521789
 20
544.402934
 30
0.0
 11
354.827038
 21
544.402934
 31
0.0
  0
LINE
  5
142E
100
AcDbEntity
  8
VHH-025
100
AcDbLine
 10
351.030348
 20
544.402934
 30
0.0
 11
350.158712
 21
540.205033
 31
0.0
  0
LINE
  5
142F
100
AcDbEntity
  8
VHH-025
100
AcDbLine
 10
348.111547
 20
544.402934
 30
0.0
 11
349.832478
 21
540.205033
 31
0.0
  0
LINE
  5
1430
100
AcDbEntity
  8
VHH-025
100
AcDbLine
 10
347.242226
 20
573.154619
 30
0.0
 11
349.954282
 21
573.154619
 31
0.0
  0
LINE
  5
1431
100
AcDbEntity
  8
VHH-025
100
AcDbLine
 10
353.442226
 20
573.154619
 30
0.0
 11
356.154282
 21
573.154619
 31
0.0
  0
CIRCLE
  5
1432
100
AcDbEntity
  8
VHH-025
100
AcDbCircle
 10
351.524774
 20
573.154619
 30
0.0
 40
0.025
  0
LINE
  5
1433
100
AcDbEntity
  8
VHH-025
100
AcDbLine
 10
353.615084
 20
546.557122
 30
0.0
 11
354.132884
 21
546.557122
 31
0.0
  0
LINE
  5
1434
100
AcDbEntity
  8
VHH-025
100
AcDbLine
 10
356.258132
 20
550.755023
 30
0.0
 11
354.132884
 21
546.557122
 31
0.0
  0
LINE
  5
1435
100
AcDbEntity
  8
VHH-025
100
AcDbLine
 10
353.248677
 20
550.755023
 30
0.0
 11
353.615084
 21
546.557122
 31
0.0
  0
LINE
  5
1436
100
AcDbEntity
  8
VHH-025
100
AcDbLine
 10
348.682869
 20
547.358711
 30
0.0
 11
351.520658
 21
547.358711
 31
0.0
  0
LINE
  5
1437
100
AcDbEntity
  8
VHH-025
100
AcDbLine
 10
348.216493
 20
546.557122
 30
0.0
 11
350.658892
 21
550.755023
 31
0.0
  0
LINE
  5
1438
100
AcDbEntity
  8
VHH-025
100
AcDbLine
 10
350.658892
 20
550.755023
 30
0.0
 11
350.964142
 21
550.755023
 31
0.0
  0
LINE
  5
1439
100
AcDbEntity
  8
VHH-025
100
AcDbLine
 10
350.964142
 20
550.755023
 30
0.0
 11
351.652006
 21
546.557122
 31
0.0
  0
LINE
  5
143A
100
AcDbEntity
  8
VHH-025
100
AcDbLine
 10
363.796552
 20
540.205033
 30
0.0
 11
366.23895
 21
544.402934
 31
0.0
  0
LINE
  5
143B
100
AcDbEntity
  8
VHH-025
100
AcDbLine
 10
361.907894
 20
544.402934
 30
0.0
 11
362.817654
 21
544.402934
 31
0.0
  0
LINE
  5
143C
100
AcDbEntity
  8
VHH-025
100
AcDbLine
 10
359.544493
 20
540.205033
 30
0.0
 11
359.67912
 21
540.205033
 31
0.0
  0
LINE
  5
143D
100
AcDbEntity
  8
VHH-025
100
AcDbLine
 10
362.817654
 20
544.402934
 30
0.0
 11
361.934662
 21
540.205033
 31
0.0
  0
LINE
  5
143E
100
AcDbEntity
  8
VHH-025
100
AcDbLine
 10
358.322615
 20
544.402934
 30
0.0
 11
357.439623
 21
540.205033
 31
0.0
  0
LINE
  5
143F
100
AcDbEntity
  8
VHH-025
100
AcDbLine
 10
361.907894
 20
544.402934
 30
0.0
 11
359.67912
 21
540.205033
 31
0.0
  0
LINE
  5
1440
100
AcDbEntity
  8
VHH-025
100
AcDbLine
 10
359.224728
 20
544.402934
 30
0.0
 11
359.544493
 21
540.205033
 31
0.0
  0
LINE
  5
1441
100
AcDbEntity
  8
VHH-025
100
AcDbLine
 10
358.322615
 20
544.402934
 30
0.0
 11
359.224728
 21
544.402934
 31
0.0
  0
CIRCLE
  5
1442
100
AcDbEntity
  8
VHH-025
100
AcDbCircle
 10
357.724774
 20
573.154619
 30
0.0
 40
0.025
  0
ARC
  5
1443
100
AcDbEntity
  8
VHH-025
100
AcDbCircle
 10
358.891737
 20
571.551541
 30
0.0
 40
0.75
100
AcDbArc
 50
270.0
 51
0.0
  0
LINE
  5
1444
100
AcDbEntity
  8
VHH-025
100
AcDbLine
 10
359.673651
 20
546.557122
 30
0.0
 11
362.820198
 21
546.557122
 31
0.0
  0
LINE
  5
1445
100
AcDbEntity
  8
VHH-025
100
AcDbLine
 10
358.4489
 20
550.755023
 30
0.0
 11
357.581593
 21
546.557122
 31
0.0
  0
LINE
  5
1446
100
AcDbEntity
  8
VHH-025
100
AcDbLine
 10
360.54441
 20
550.771731
 30
0.0
 11
359.673651
 21
546.557122
 31
0.0
  0
LINE
  5
1447
100
AcDbEntity
  8
VHH-025
100
AcDbLine
 10
364.262928
 20
541.006622
 30
0.0
 11
367.100717
 21
541.006622
 31
0.0
  0
LINE
  5
1448
100
AcDbEntity
  8
VHH-025
100
AcDbLine
 10
366.23895
 20
544.402934
 30
0.0
 11
366.5442
 21
544.402934
 31
0.0
  0
LINE
  5
1449
100
AcDbEntity
  8
VHH-025
100
AcDbLine
 10
366.5442
 20
544.402934
 30
0.0
 11
367.232065
 21
540.205033
 31
0.0
  0
SPLINE
  5
144A
100
AcDbEntity
  8
VHH-025
100
AcDbSpline
210
0.0
220
0.0
230
1.0
 70
     8
 71
     3
 72
    12
 73
     8
 74
     0
 42
0.0000001
 43
0.0000001
 40
1.820596868471746
 40
1.820596868471746
 40
1.820596868471746
 40
1.820596868471746
 40
4.503295473557569
 40
6.216955522489968
 40
7.774552440697402
 40
9.232972112989187
 40
10.8164521343443
 40
10.8164521343443
 40
10.8164521343443
 40
10.8164521343443
 10
370.8552424419749
 20
548.4333369542232
 30
0.0
 10
371.3180629079825
 20
548.4479974493219
 30
0.0
 10
372.0300480371943
 20
548.581706810693
 30
0.0
 10
372.7391394431642
 20
549.3649230906026
 30
0.0
 10
372.7925729734824
 20
550.2671833980125
 30
0.0
 10
372.0707340326053
 20
550.7518270163968
 30
0.0
 10
371.5614759329646
 20
550.753929081346
 30
0.0
 10
371.2963784255816
 20
550.7550233244788
 30
0.0
  0
SPLINE
  5
144B
100
AcDbEntity
  8
VHH-025
100
AcDbSpline
210
0.0
220
0.0
230
1.0
 70
     8
 71
     3
 72
    12
 73
     8
 74
     0
 42
0.0000001
 43
0.0000001
 40
0.3004138362153372
 40
0.3004138362153372
 40
0.3004138362153372
 40
0.3004138362153372
 40
0.6531836346659445
 40
2.201425060069765
 40
3.775834883110177
 40
5.170639203720888
 40
5.549375987942882
 40
5.549375987942882
 40
5.549375987942882
 40
5.549375987942882
 10
372.0734990731407
 20
546.5571220457445
 30
0.0
 10
372.0635847843559
 20
546.6152425106725
 30
0.0
 10
372.0163741372589
 20
546.9276352444971
 30
0.0
 10
372.06320610714
 20
547.4814488339266
 30
0.0
 10
371.9212758045951
 20
548.3627740513152
 30
0.0
 10
371.2851395016068
 20
548.4342724435159
 30
0.0
 10
370.9767165524272
 20
548.4320828407931
 30
0.0
 10
370.8552424419749
 20
548.4333369542232
 30
0.0
  0
SPLINE
  5
144C
100
AcDbEntity
  8
VHH-025
100
AcDbSpline
210
0.0
220
0.0
230
1.0
 70
     8
 71
     3
 72
    20
 73
    16
 74
     0
 42
0.0000001
 43
0.0000001
 40
3.141592653589793
 40
3.141592653589793
 40
3.141592653589793
 40
3.141592653589793
 40
3.566852563487359
 40
3.566852563487359
 40
4.097334864786621
 40
4.097334864786621
 40
4.627817166085884
 40
4.627817166085884
 40
5.158299467385146
 40
5.158299467385146
 40
5.688781768684408
 40
5.688781768684408
 40
6.21926406998367
 40
6.21926406998367
 40
6.283185307179586
 40
6.283185307179586
 40
6.283185307179586
 40
6.283185307179586
 10
373.7917372985148
 20
574.7015412051118
 30
0.0
 10
373.7917372985148
 20
574.6079094179326
 30
0.0
 10
373.8147990595016
 20
574.5140398747349
 30
0.0
 10
373.9188935389111
 20
574.3155401953495
 30
0.0
 10
374.0139836824992
 20
574.2142549173435
 30
0.0
 10
374.2605055758458
 20
574.0638440317275
 30
0.0
 10
374.4114047040975
 20
574.0156663583689
 30
0.0
 10
374.7227428608539
 20
573.992872068658
 30
0.0
 10
374.8822954362758
 20
574.01835871109
 30
0.0
 10
375.1591957399732
 20
574.1326732638567
 30
0.0
 10
375.275773407845
 20
574.2208567932843
 30
0.0
 10
375.4366244851962
 20
574.4263696046268
 30
0.0
 10
375.4815278417345
 20
574.5426684718827
 30
0.0
 10
375.491216525007
 20
574.6733934097615
 30
0.0
 10
375.4917372985155
 20
574.6874673186762
 30
0.0
 10
375.4917372985155
 20
574.7015412051118
 30
0.0
  0
LINE
  5
144D
100
AcDbEntity
  8
VHH-025
100
AcDbLine
 10
369.174102
 20
540.17532
 30
0.0
 11
370.051459
 21
544.402934
 31
0.0
  0
CIRCLE
  5
144E
100
AcDbEntity
  8
VHH-025
100
AcDbCircle
 10
374.488132
 20
544.007773
 30
0.0
 40
0.724411
  0
CIRCLE
  5
144F
100
AcDbEntity
  8
VHH-025
100
AcDbCircle
 10
375.436109
 20
550.261906
 30
0.0
 40
0.724411
  0
LINE
  5
1450
100
AcDbEntity
  8
VHH-025
100
AcDbLine
 10
369.82036
 20
550.755023
 30
0.0
 11
371.296378
 21
550.755023
 31
0.0
  0
LINE
  5
1451
100
AcDbEntity
  8
VHH-025
100
AcDbLine
 10
369.338294
 20
548.433337
 30
0.0
 11
370.855242
 21
548.433337
 31
0.0
  0
LINE
  5
1452
100
AcDbEntity
  8
VHH-025
100
AcDbLine
 10
368.948724
 20
546.557122
 30
0.0
 11
369.82036
 21
550.755023
 31
0.0
  0
LINE
  5
1453
100
AcDbEntity
  8
VHH-025
100
AcDbLine
 10
376.57472
 20
511.7
 30
0.0
 11
400.632421
 21
511.7
 31
0.0
  0
LINE
  5
1454
100
AcDbEntity
  8
VHH-025
100
AcDbLine
 10
370.531746
 20
511.7
 30
0.0
 11
373.5538
 21
511.7
 31
0.0
  0
LINE
  5
1455
100
AcDbEntity
  8
VHH-025
100
AcDbLine
 10
373.5538
 20
511.7
 30
0.0
 11
376.57472
 21
511.7
 31
0.0
  0
LINE
  5
1456
100
AcDbEntity
  8
VHH-025
100
AcDbLine
 10
400.632421
 20
511.7
 30
0.0
 11
412.587945
 21
511.7
 31
0.0
  0
SPLINE
  5
1457
100
AcDbEntity
  8
VHH-025
100
AcDbSpline
210
0.0
220
0.0
230
1.0
 70
     8
 71
     3
 72
    12
 73
     8
 74
     6
 42
0.0000001
 43
0.0000001
 44
0.0000000001
 40
0.0
 40
0.0
 40
0.0
 40
0.0
 40
0.5662025144877934
 40
1.132136061659873
 40
1.697787119143066
 40
2.263116602110201
 40
2.828292171029371
 40
2.828292171029371
 40
2.828292171029371
 40
2.828292171029371
 10
456.5436441851061
 20
513.4078597155216
 30
0.0
 10
456.5051099488315
 20
513.2209906306529
 30
0.0
 10
456.4280597814821
 20
512.8473412307016
 30
0.0
 10
456.0891512524626
 20
512.3795073738381
 30
0.0
 10
455.6739229898609
 20
511.9881665273058
 30
0.0
 10
455.1414725430817
 20
511.7617161549873
 30
0.0
 10
454.7659088711556
 20
511.7205702874985
 30
0.0
 10
454.5781526009895
 20
511.7000001546825
 30
0.0
 11
456.5436441851061
 21
513.4078597155216
 31
0.0
 11
456.3907876958992
 21
512.8626806796814
 31
0.0
 11
456.0763360163991
 21
512.3921480866824
 31
0.0
 11
455.6542615969001
 21
512.0155656876827
 31
0.0
 11
455.1362527913997
 21
511.7891494741821
 31
0.0
 11
454.5781526009895
 21
511.7000001546825
 31
0.0
  0
LINE
  5
1458
100
AcDbEntity
  8
VHH-025
100
AcDbLine
 10
444.244297
 20
509.7
 30
0.0
 11
447.892825
 21
509.7
 31
0.0
  0
LINE
  5
1459
100
AcDbEntity
  8
VHH-025
100
AcDbLine
 10
447.892825
 20
509.1
 30
0.0
 11
444.492825
 21
509.1
 31
0.0
  0
LINE
  5
145A
100
AcDbEntity
  8
VHH-025
100
AcDbLine
 10
444.492825
 20
509.1
 30
0.0
 11
443.492825
 21
508.1
 31
0.0
  0
LINE
  5
145B
100
AcDbEntity
  8
VHH-025
100
AcDbLine
 10
444.244297
 20
509.7
 30
0.0
 11
443.244297
 21
508.7
 31
0.0
  0
LINE
  5
145C
100
AcDbEntity
  8
VHH-025
100
AcDbLine
 10
439.528366
 20
510.3
 30
0.0
 11
439.528366
 21
510.9
 31
0.0
  0
LINE
  5
145D
100
AcDbEntity
  8
VHH-025
100
AcDbLine
 10
434.492825
 20
508.1
 30
0.0
 11
434.492825
 21
508.7
 31
0.0
  0
LINE
  5
145E
100
AcDbEntity
  8
VHH-025
100
AcDbLine
 10
434.492825
 20
508.7
 30
0.0
 11
434.492825
 21
509.7
 31
0.0
  0
LINE
  5
145F
100
AcDbEntity
  8
VHH-025
100
AcDbLine
 10
434.492825
 20
509.7
 30
0.0
 11
444.244297
 21
509.7
 31
0.0
  0
LINE
  5
1460
100
AcDbEntity
  8
VHH-025
100
AcDbLine
 10
443.244297
 20
508.7
 30
0.0
 11
434.492825
 21
508.7
 31
0.0
  0
LINE
  5
1461
100
AcDbEntity
  8
VHH-025
100
AcDbLine
 10
443.492825
 20
508.1
 30
0.0
 11
434.492825
 21
508.1
 31
0.0
  0
ARC
  5
1462
100
AcDbEntity
  8
VHH-025
100
AcDbCircle
 10
447.892825
 20
510.7
 30
0.0
 40
1.0
100
AcDbArc
 50
270.0
 51
90.0
  0
ARC
  5
1463
100
AcDbEntity
  8
VHH-025
100
AcDbCircle
 10
447.892825
 20
510.7
 30
0.0
 40
1.6
100
AcDbArc
 50
270.0
 51
38.682187
  0
LINE
  5
1464
100
AcDbEntity
  8
VHH-025
100
AcDbLine
 10
448.078376
 20
511.7
 30
0.0
 11
448.510992
 21
511.7
 31
0.0
  0
LINE
  5
1465
100
AcDbEntity
  8
VHH-025
100
AcDbLine
 10
448.510992
 20
511.7
 30
0.0
 11
448.914636
 21
511.7
 31
0.0
  0
LINE
  5
1466
100
AcDbEntity
  8
VHH-025
100
AcDbLine
 10
448.914636
 20
511.7
 30
0.0
 11
449.104563
 21
511.7
 31
0.0
  0
LINE
  5
1467
100
AcDbEntity
  8
VHH-025
100
AcDbLine
 10
449.104563
 20
511.7
 30
0.0
 11
449.282594
 21
511.7
 31
0.0
  0
LINE
  5
1468
100
AcDbEntity
  8
VHH-025
100
AcDbLine
 10
449.282594
 20
511.7
 30
0.0
 11
449.602403
 21
511.7
 31
0.0
  0
LINE
  5
1469
100
AcDbEntity
  8
VHH-025
100
AcDbLine
 10
449.602403
 20
511.7
 30
0.0
 11
449.674762
 21
511.7
 31
0.0
  0
LINE
  5
146A
100
AcDbEntity
  8
VHH-025
100
AcDbLine
 10
449.674762
 20
511.7
 30
0.0
 11
449.743959
 21
511.7
 31
0.0
  0
LINE
  5
146B
100
AcDbEntity
  8
VHH-025
100
AcDbLine
 10
449.743959
 20
511.7
 30
0.0
 11
449.870738
 21
511.7
 31
0.0
  0
LINE
  5
146C
100
AcDbEntity
  8
VHH-025
100
AcDbLine
 10
449.870738
 20
511.7
 30
0.0
 11
450.077425
 21
511.7
 31
0.0
  0
SPLINE
  5
146D
100
AcDbEntity
  8
VHH-025
100
AcDbSpline
210
0.0
220
0.0
230
1.0
 70
     8
 71
     3
 72
    11
 73
     7
 74
     5
 42
0.0000001
 43
0.0000001
 44
0.0000000001
 40
0.0
 40
0.0
 40
0.0
 40
0.0
 40
0.6501585836432341
 40
1.328696847749174
 40
2.007498148688284
 40
2.665365116566113
 40
2.665365116566113
 40
2.665365116566113
 40
2.665365116566113
 10
462.5091845468987
 20
513.2798863506828
 30
0.0
 10
462.4706951839631
 20
513.0617176408113
 30
0.0
 10
462.3920363821092
 20
512.6158570702114
 30
0.0
 10
461.9016320657526
 20
512.119918676871
 30
0.0
 10
461.313888383961
 20
511.7706116462882
 30
0.0
 10
460.8655382183676
 20
511.723290276123
 30
0.0
 10
460.6448740708993
 20
511.7000001546825
 30
0.0
 11
462.5091845468987
 21
513.2798863506828
 31
0.0
 11
462.3348338434562
 21
512.6535413849537
 31
0.0
 11
461.8856289344594
 21
512.1449854631623
 31
0.0
 11
461.2926947925616
 21
511.8145307619875
 31
0.0
 11
460.6448740708993
 21
511.7000001546825
 31
0.0
  0
SPLINE
  5
146E
100
AcDbEntity
  8
VHH-025
100
AcDbSpline
210
0.0
220
0.0
230
-1.0
 70
     8
 71
     3
 72
    13
 73
     9
 74
     7
 42
0.0000001
 43
0.0000001
 44
0.0000000001
 40
0.0
 40
0.0
 40
0.0
 40
0.0
 40
5.157331242127678
 40
11.03348381863841
 40
14.6191666271849
 40
16.78242660352459
 40
17.89174384221329
 40
18.52503597702181
 40
18.52503597702181
 40
18.52503597702181
 40
18.52503597702181
 10
456.9346347847795
 20
523.0000001114844
 30
0.0
 10
456.8456190040838
 20
524.7169780778864
 30
0.0
 10
456.6551805525282
 20
528.3902439046977
 30
0.0
 10
456.5263966229921
 20
533.2602549082194
 30
0.0
 10
456.5052738356605
 20
537.1399900125477
 30
0.0
 10
456.7507891189755
 20
539.4167616270008
 30
0.0
 10
457.0288860895812
 20
540.6932364663029
 30
0.0
 10
457.2327029812519
 20
541.2376587941429
 30
0.0
 10
457.3067733015423
 20
541.4355105809395
 30
0.0
 11
456.9346347847795
 21
523.0000001114844
 31
0.0
 11
456.687959502532
 21
528.151428733348
 31
0.0
 11
456.531736195785
 21
534.0255042674948
 31
0.0
 11
456.5868137658826
 21
537.6107640439654
 31
0.0
 11
456.839141509331
 21
539.7592575708626
 31
0.0
 11
457.095094162124
 21
540.8386430328642
 31
0.0
 11
457.3067733015423
 21
541.4355105809395
 31
0.0
  0
SPLINE
  5
146F
100
AcDbEntity
  8
VHH-025
100
AcDbSpline
210
0.0
220
0.0
230
1.0
 70
     8
 71
     3
 72
    17
 73
    13
 74
    11
 42
0.0000001
 43
0.0000001
 44
0.0000000001
 40
0.0
 40
0.0
 40
0.0
 40
0.0
 40
0.5545798661044809
 40
1.653562178451522
 40
2.750923934510645
 40
3.84857121251147
 40
4.674193321130468
 40
5.488636099266186
 40
8.52417256482677
 40
12.84394436806059
 40
16.51294489443635
 40
20.18194542081096
 40
20.18194542081096
 40
20.18194542081096
 40
20.18194542081096
 10
457.5790723334967
 20
541.88535749845
 30
0.0
 10
457.6069821389313
 20
541.7026698175614
 30
0.0
 10
457.6901993660528
 20
541.1579593835019
 30
0.0
 10
457.9245306994659
 20
540.2646237353084
 30
0.0
 10
458.4558657992594
 20
539.2910481188903
 30
0.0
 10
459.1248792897468
 20
538.5299702545471
 30
0.0
 10
459.8423844930867
 20
537.9564970038745
 30
0.0
 10
460.7156102834484
 20
536.6443091403929
 30
0.0
 10
461.5300646442419
 20
534.0215989233568
 30
0.0
 10
462.5824176372902
 20
530.4990277768238
 30
0.0
 10
463.0121698406984
 20
526.6252619162192
 30
0.0
 10
463.381411542115
 20
524.2084207388922
 30
0.0
 10
463.5660323928232
 20
523.0000001502289
 30
0.0
 11
457.5790723334967
 21
541.88535749845
 31
0.0
 11
457.6692850246882
 21
541.3381642069739
 31
0.0
 11
457.9665277324611
 21
540.2801429900186
 31
0.0
 11
458.4888334280922
 21
539.3150525362411
 31
0.0
 11
459.2105620397751
 21
538.4880474830638
 31
0.0
 11
459.8140096062934
 21
537.9245735256322
 31
0.0
 11
460.2857923280253
 21
537.2606924351252
 31
0.0
 11
461.3967332057463
 21
534.4357513738009
 31
0.0
 11
462.5076740834674
 21
530.261276700477
 31
0.0
 11
463.0368532381462
 21
526.6306384253526
 31
0.0
 11
463.5660323928232
 21
523.0000001502289
 31
0.0
  0
LINE
  5
1470
100
AcDbEntity
  8
VHH-025
100
AcDbLine
 10
456.956013
 20
522.0
 30
0.0
 11
456.543644
 21
513.40786
 31
0.0
  0
LINE
  5
1471
100
AcDbEntity
  8
VHH-025
100
AcDbLine
 10
461.44877
 20
523.0
 30
0.0
 11
461.589546
 21
522.0
 31
0.0
  0
LINE
  5
1472
100
AcDbEntity
  8
VHH-025
100
AcDbLine
 10
463.587284
 20
522.0
 30
0.0
 11
462.509185
 21
513.279886
 31
0.0
  0
LINE
  5
1495
100
AcDbEntity
  8
VHH-025
100
AcDbLine
 10
345.891737
 20
582.301541
 30
0.0
 11
358.891737
 21
582.301541
 31
0.0
  0
SPLINE
  5
14A1
100
AcDbEntity
  8
VHH-025
100
AcDbSpline
210
0.0
220
0.0
230
-1.0
 70
     8
 71
     3
 72
    14
 73
    10
 74
     0
 42
0.0000001
 43
0.0000001
 40
0.0
 40
0.0
 40
0.0
 40
0.0
 40
8.543455177382728
 40
32.60806185346405
 40
34.09251365044104
 40
35.82256549595564
 40
37.21403762249804
 40
38.48665207093368
 40
38.6143838058074
 40
38.6143838058074
 40
38.6143838058074
 40
38.6143838058074
 10
352.3917372985152
 20
608.3729801514041
 30
0.0
 10
349.542450820526
 20
608.3609811172359
 30
0.0
 10
338.6674935832661
 20
608.3151840433106
 30
0.0
 10
326.8977651049835
 20
608.2312267889306
 30
0.0
 10
318.2093730773603
 20
607.95908298332
 30
0.0
 10
316.7578589936137
 20
607.2382751519175
 30
0.0
 10
315.9274535669983
 20
605.936033184516
 30
0.0
 10
315.9033623190289
 20
604.9915641575567
 30
0.0
 10
315.8936878626964
 20
604.519344049338
 30
0.0
 10
315.892825146514
 20
604.4762831537059
 30
0.0
  0
ARC
  5
14A2
100
AcDbEntity
  8
VHH-025
100
AcDbCircle
 10
348.100421
 20
-119.149534
 30
0.0
 40
730.516587
100
AcDbArc
 50
89.663337
 51
92.80173
  0
SPLINE
  5
14C0
100
AcDbEntity
  8
VHH-025
100
AcDbSpline
210
0.0
220
0.0
230
-1.0
 70
     8
 71
     3
 72
    15
 73
    11
 74
     9
 42
0.0000001
 43
0.0000001
 44
0.0000000001
 40
0.0
 40
0.0
 40
0.0
 40
0.0
 40
8.727930916723018
 40
16.25763323255736
 40
20.36216076943337
 40
21.62307303412681
 40
23.69549543386642
 40
25.38624445710524
 40
45.72281463408967
 40
79.43205808847294
 40
79.43205808847294
 40
79.43205808847294
 40
79.43205808847294
 10
227.5319426058195
 20
585.5000001546827
 30
0.0
 10
226.8331640487569
 20
588.3165902787391
 30
0.0
 10
225.5315399181476
 20
593.5630902384962
 30
0.0
 10
223.6014529611488
 20
600.1571665177094
 30
0.0
 10
221.2950342831601
 20
603.781205837903
 30
0.0
 10
219.7567804642307
 20
605.7824605104741
 30
0.0
 10
218.0670328909861
 20
606.3205618189417
 30
0.0
 10
210.1310101719485
 20
607.1052661239089
 30
0.0
 10
191.5700876823064
 20
609.021637583757
 30
0.0
 10
173.6020013686492
 20
610.0672750766833
 30
0.0
 10
162.3950168631017
 20
610.719456003304
 30
0.0
 11
227.5319426058195
 21
585.5000001546827
 31
0.0
 11
225.3666087170386
 21
593.9550641542742
 31
0.0
 11
222.8670866218562
 21
601.0577964637995
 31
0.0
 11
220.6986513817282
 21
604.5427691911454
 31
0.0
 11
219.8628371091617
 21
605.4868635937496
 31
0.0
 11
217.9466887476701
 21
606.2763634732273
 31
0.0
 11
216.2705801097872
 21
606.4983817013021
 31
0.0
 11
196.0275621081218
 21
608.4467935539819
 31
0.0
 11
162.3950168631017
 21
610.719456003304
 31
0.0
  0
ARC
  5
14C1
100
AcDbEntity
  8
VHH-025
100
AcDbCircle
 10
118.100423
 20
-119.149534
 30
0.0
 40
730.516587
100
AcDbArc
 50
89.663337
 51
92.80173
  0
SPLINE
  5
14C2
100
AcDbEntity
  8
VHH-025
100
AcDbSpline
210
0.0
220
0.0
230
-1.0
 70
     8
 71
     3
 72
    20
 73
    16
 74
     0
 42
0.0000001
 43
0.0000001
 40
0.0
 40
0.0
 40
0.0
 40
0.0
 40
0.411372432094715
 40
0.411372432094715
 40
0.7549641539760199
 40
0.7549641539760199
 40
1.460265566936419
 40
1.460265566936419
 40
1.780008105651267
 40
1.780008105651267
 40
2.128014443002301
 40
2.128014443002301
 40
2.476020780353334
 40
2.476020780353334
 40
2.570156969732271
 40
2.570156969732271
 40
2.570156969732271
 40
2.570156969732271
 10
66.57683508659466
 20
588.0800127985576
 30
0.0
 10
66.71555628765054
 20
588.0697873846684
 30
0.0
 10
66.83775553094529
 20
588.0601437260479
 30
0.0
 10
67.02543350019368
 20
588.0325845736511
 30
0.0
 10
67.09647289669738
 20
588.0165616940017
 30
0.0
 10
67.27314304546962
 20
587.9578439158931
 30
0.0
 10
67.37025891787562
 20
587.8945793828247
 30
0.0
 10
67.4769122658472
 20
587.7755918343959
 30
0.0
 10
67.50551295683909
 20
587.7339537645516
 30
0.0
 10
67.549403137431
 20
587.6489294260572
 30
0.0
 10
67.56190665456961
 20
587.6138866018777
 30
0.0
 10
67.58652244616678
 20
587.4890743606997
 30
0.0
 10
67.59522612915862
 20
587.4031906175982
 30
0.0
 10
67.60359851643989
 20
587.2677466571968
 30
0.0
 10
67.60528990627609
 20
587.2374127361122
 30
0.0
 10
67.60705672056065
 20
587.2056418385059
 30
0.0
  0
SPLINE
  5
14C3
100
AcDbEntity
  8
VHH-025
100
AcDbSpline
210
0.0
220
0.0
230
-1.0
 70
     8
 71
     3
 72
    11
 73
     7
 74
     5
 42
0.0000001
 43
0.0000001
 44
0.0000000001
 40
0.0
 40
0.0
 40
0.0
 40
0.0
 40
0.8012084873077293
 40
1.355387018410695
 40
1.955784421319204
 40
2.570156969733361
 40
2.570156969733361
 40
2.570156969733361
 40
2.570156969733361
 10
66.62829385993609
 20
588.7781188038648
 30
0.0
 10
66.89847385982297
 20
588.7582033021068
 30
0.0
 10
67.35553150497027
 20
588.7245126797839
 30
0.0
 10
67.93149652331966
 20
588.3786628649513
 30
0.0
 10
68.2716461826171
 20
587.8618438529631
 30
0.0
 10
68.29444584040242
 20
587.4518598500729
 30
0.0
 10
68.30597681698055
 20
587.2445095477456
 30
0.0
 11
66.62829385993609
 21
588.7781188038648
 31
0.0
 11
67.41859973585087
 21
588.6463930940412
 31
0.0
 11
67.8906994394074
 21
588.3561591982997
 31
0.0
 11
68.21746755976528
 21
587.8524731483271
 31
0.0
 11
68.30597681698055
 21
587.2445095477456
 31
0.0
  0
CIRCLE
  5
14C4
100
AcDbEntity
  8
VHH-025
100
AcDbCircle
 10
64.581312
 20
577.554525
 30
0.0
 40
1.51318
  0
CIRCLE
  5
14C5
100
AcDbEntity
  8
VHH-025
100
AcDbCircle
 10
64.581312
 20
577.554525
 30
0.0
 40
2.21318
  0
LINE
  5
14C6
100
AcDbEntity
  8
VHH-025
100
AcDbLine
 10
61.685993
 20
587.846433
 30
0.0
 11
66.660965
 21
588.078882
 31
0.0
  0
LINE
  5
14C7
100
AcDbEntity
  8
VHH-025
100
AcDbLine
 10
7.390652
 20
585.5
 30
0.0
 11
17.255901
 21
585.5
 31
0.0
  0
SPLINE
  5
14C8
100
AcDbEntity
  8
VHH-025
100
AcDbSpline
210
0.0
220
0.0
230
-1.0
 70
     8
 71
     3
 72
    11
 73
     7
 74
     5
 42
0.0000001
 43
0.0000001
 44
0.0000000001
 40
0.0
 40
0.0
 40
0.0
 40
0.0
 40
0.3788822097076336
 40
0.7856242620079092
 40
1.206550869508587
 40
1.477512281568232
 40
1.477512281568232
 40
1.477512281568232
 40
1.477512281568232
 10
58.11984608354396
 20
585.7537630751854
 30
0.0
 10
58.24797832663536
 20
585.7545274824944
 30
0.0
 10
58.51366459096479
 20
585.7561125052602
 30
0.0
 10
58.87389914273725
 20
585.5049528597439
 30
0.0
 10
58.97556374946461
 20
585.1335306680008
 30
0.0
 10
58.97797520128619
 20
584.903666846356
 30
0.0
 10
58.97891958877699
 20
584.8136461725857
 30
0.0
 11
58.11984608354396
 21
585.7537630751854
 31
0.0
 11
58.49700344472513
 21
585.7176513909293
 31
0.0
 11
58.82848208833639
 21
585.4819375688079
 31
0.0
 11
58.96663659196383
 21
585.0843290401903
 31
0.0
 11
58.97891958877699
 21
584.8136461725857
 31
0.0
  0
SPLINE
  5
14C9
100
AcDbEntity
  8
VHH-025
100
AcDbSpline
210
0.0
220
0.0
230
-1.0
 70
     8
 71
     3
 72
    12
 73
     8
 74
     6
 42
0.0000001
 43
0.0000001
 44
0.0000000001
 40
0.0
 40
0.0
 40
0.0
 40
0.0
 40
0.460609787038649
 40
0.8428341308469033
 40
1.231136252853797
 40
1.532631450481511
 40
1.823032378359441
 40
1.823032378359441
 40
1.823032378359441
 40
1.823032378359441
 10
45.01999602232354
 20
583.9202051532488
 30
0.0
 10
45.03042007936129
 20
584.0740984375377
 30
0.0
 10
45.04949425299055
 20
584.3556958246462
 30
0.0
 10
45.21384921391737
 20
584.7431231334715
 30
0.0
 10
45.48914788065517
 20
584.9909754753495
 30
0.0
 10
45.80163879084515
 20
585.1016695026364
 30
0.0
 10
45.99789055990172
 20
585.1243729721422
 30
0.0
 10
46.0941772111837
 20
585.1355119344134
 30
0.0
 11
45.01999602232354
 21
583.9202051532488
 31
0.0
 11
45.0791762030949
 21
584.3769973183738
 31
0.0
 11
45.23641698602659
 21
584.7253804195466
 31
0.0
 11
45.52499249251559
 21
584.9851932656679
 31
0.0
 11
45.80713539622411
 21
585.0914699615118
 31
0.0
 11
46.0941772111837
 21
585.1355119344134
 31
0.0
  0
SPLINE
  5
14CA
100
AcDbEntity
  8
VHH-025
100
AcDbSpline
210
0.0
220
0.0
230
-1.0
 70
     8
 71
     3
 72
    11
 73
     7
 74
     5
 42
0.0000001
 43
0.0000001
 44
0.0000000001
 40
0.0
 40
0.0
 40
0.0
 40
0.0
 40
0.7911843907099164
 40
1.600893155509941
 40
2.25144445812222
 40
2.582196256358476
 40
2.582196256358476
 40
2.582196256358476
 40
2.582196256358476
 10
42.60336968756746
 20
586.0385176264112
 30
0.0
 10
42.64683016663679
 20
586.304594319371
 30
0.0
 10
42.73476868551334
 20
586.8429774846629
 30
0.0
 10
43.30547015071148
 20
587.3992969230027
 30
0.0
 10
43.85720355503273
 20
587.638794775496
 30
0.0
 10
44.176802951835
 20
587.7101023783373
 30
0.0
 10
44.28452509712951
 20
587.7341368666084
 30
0.0
 11
42.60336968756746
 21
586.0385176264112
 31
0.0
 11
42.81138765992364
 21
586.8018663431062
 31
0.0
 11
43.37031662248409
 21
587.3877218701818
 31
0.0
 11
43.96332429109679
 21
587.6552268277005
 31
0.0
 11
44.28452509712951
 21
587.7341368666084
 31
0.0
  0
LINE
  5
14CB
100
AcDbEntity
  8
VHH-025
100
AcDbLine
 10
46.094177
 20
585.135512
 30
0.0
 11
58.119846
 21
585.753763
 31
0.0
  0
ARC
  5
14CC
100
AcDbEntity
  8
VHH-025
100
AcDbCircle
 10
45.073196
 20
585.24592
 30
0.0
 40
0.5
100
AcDbArc
 50
92.817949
 51
179.819431
  0
ARC
  5
14CD
100
AcDbEntity
  8
VHH-025
100
AcDbCircle
 10
59.240646
 20
585.943273
 30
0.0
 40
0.5
100
AcDbArc
 50
359.745727
 51
92.817949
  0
LINE
  5
14CE
100
AcDbEntity
  8
VHH-025
100
AcDbLine
 10
45.048614
 20
585.745316
 30
0.0
 11
59.216064
 21
586.442668
 31
0.0
  0
LINE
  5
14CF
100
AcDbEntity
  8
VHH-025
100
AcDbLine
 10
44.284525
 20
587.734137
 30
0.0
 11
66.628294
 21
588.778119
 31
0.0
  0
SPLINE
  5
14D0
100
AcDbEntity
  8
VHH-025
100
AcDbSpline
210
0.0
220
0.0
230
-1.0
 70
     8
 71
     3
 72
    15
 73
    11
 74
     9
 42
0.0000001
 43
0.0000001
 44
0.0000000001
 40
0.0
 40
0.0
 40
0.0
 40
0.0
 40
8.727930916723018
 40
16.25763323255797
 40
20.36216076943301
 40
21.62307303412766
 40
23.69549543386391
 40
25.38624445710634
 40
45.72281463408896
 40
79.43205808847043
 40
79.43205808847043
 40
79.43205808847043
 40
79.43205808847043
 10
17.25590066246331
 20
585.5000001546827
 30
0.0
 10
17.95467921952535
 20
588.3165902787393
 30
0.0
 10
19.25630335013383
 20
593.5630902384972
 30
0.0
 10
21.18639030713783
 20
600.157166517707
 30
0.0
 10
23.49280898512167
 20
603.781205837905
 30
0.0
 10
25.03106280405351
 20
605.7824605104721
 30
0.0
 10
26.72081037729672
 20
606.3205618189429
 30
0.0
 10
34.65683309633593
 20
607.1052661239037
 30
0.0
 10
53.21775558597517
 20
609.0216375837607
 30
0.0
 10
71.18584189963192
 20
610.0672750766847
 30
0.0
 10
82.39282640517922
 20
610.719456003304
 30
0.0
 11
17.25590066246331
 21
585.5000001546827
 31
0.0
 11
19.42123455124419
 21
593.9550641542742
 31
0.0
 11
21.92075664642834
 21
601.0577964637995
 31
0.0
 11
24.08919188655454
 21
604.5427691911454
 31
0.0
 11
24.92500615912286
 21
605.4868635937496
 31
0.0
 11
26.84115452061087
 21
606.2763634732273
 31
0.0
 11
28.51726315849737
 21
606.4983817013021
 31
0.0
 11
48.76028116016096
 21
608.4467935539819
 31
0.0
 11
82.39282640517922
 21
610.719456003304
 31
0.0
  0
ARC
  5
14D1
100
AcDbEntity
  8
VHH-025
100
AcDbCircle
 10
126.687421
 20
-119.149534
 30
0.0
 40
730.516587
100
AcDbArc
 50
87.19827
 51
90.336663
  0
CIRCLE
  5
14D2
100
AcDbEntity
  8
VHH-025
100
AcDbCircle
 10
151.391738
 20
590.051541
 30
0.0
 40
2.0
  0
LINE
  5
14D3
100
AcDbEntity
  8
VHH-025
100
AcDbLine
 10
103.891738
 20
576.801541
 30
0.0
 11
105.391738
 21
576.801541
 31
0.0
  0
LINE
  5
14D4
100
AcDbEntity
  8
VHH-025
100
AcDbLine
 10
100.891738
 20
576.801541
 30
0.0
 11
99.391738
 21
576.801541
 31
0.0
  0
ARC
  5
14D5
100
AcDbEntity
  8
VHH-025
100
AcDbCircle
 10
99.391738
 20
576.551541
 30
0.0
 40
0.25
100
AcDbArc
 50
90.0
 51
225.0
  0
LINE
  5
14D6
100
AcDbEntity
  8
VHH-025
100
AcDbLine
 10
103.891738
 20
576.801541
 30
0.0
 11
103.891738
 21
579.551541
 31
0.0
  0
ARC
  5
14D7
100
AcDbEntity
  8
VHH-025
100
AcDbCircle
 10
103.641738
 20
579.551541
 30
0.0
 40
0.25
100
AcDbArc
 50
0.0
 51
90.0
  0
LINE
  5
14D8
100
AcDbEntity
  8
VHH-025
100
AcDbLine
 10
103.641738
 20
579.801541
 30
0.0
 11
101.141738
 21
579.801541
 31
0.0
  0
ARC
  5
14D9
100
AcDbEntity
  8
VHH-025
100
AcDbCircle
 10
101.141738
 20
579.551541
 30
0.0
 40
0.25
100
AcDbArc
 50
90.0
 51
180.0
  0
LINE
  5
14DA
100
AcDbEntity
  8
VHH-025
100
AcDbLine
 10
100.891738
 20
579.551541
 30
0.0
 11
100.891738
 21
576.801541
 31
0.0
  0
SPLINE
  5
14DB
100
AcDbEntity
  8
VHH-025
100
AcDbSpline
210
0.0
220
0.0
230
-1.0
 70
     8
 71
     3
 72
    20
 73
    16
 74
     0
 42
0.0000001
 43
0.0000001
 40
3.141592653589793
 40
3.141592653589793
 40
3.141592653589793
 40
3.141592653589793
 40
3.566852563487359
 40
3.566852563487359
 40
4.097334864786621
 40
4.097334864786621
 40
4.627817166085884
 40
4.627817166085884
 40
5.158299467385146
 40
5.158299467385146
 40
5.688781768684408
 40
5.688781768684408
 40
6.21926406998367
 40
6.21926406998367
 40
6.283185307179586
 40
6.283185307179586
 40
6.283185307179586
 40
6.283185307179586
 10
145.4917384281216
 20
576.001541205112
 30
0.0
 10
145.4917384281216
 20
576.0951729922912
 30
0.0
 10
145.4686766671347
 20
576.1890425354886
 30
0.0
 10
145.3645821877253
 20
576.3875422148739
 30
0.0
 10
145.2694920441372
 20
576.4888274928798
 30
0.0
 10
145.0229701507905
 20
576.6392383784959
 30
0.0
 10
144.8720710225388
 20
576.6874160518546
 30
0.0
 10
144.5607328657824
 20
576.7102103415655
 30
0.0
 10
144.4011802903605
 20
576.6847236991334
 30
0.0
 10
144.1242799866631
 20
576.5704091463667
 30
0.0
 10
144.0077023187914
 20
576.4822256169395
 30
0.0
 10
143.8468512414401
 20
576.2767128055966
 30
0.0
 10
143.8019478849037
 20
576.1604139383412
 30
0.0
 10
143.7922592016293
 20
576.0296890004624
 30
0.0
 10
143.7917384281208
 20
576.0156150915472
 30
0.0
 10
143.7917384281208
 20
576.001541205112
 30
0.0
  0
ARC
  5
14DC
100
AcDbEntity
  8
VHH-025
100
AcDbCircle
 10
128.891738
 20
581.551541
 30
0.0
 40
0.75
100
AcDbArc
 50
0.0
 51
90.0
  0
ARC
  5
14DD
100
AcDbEntity
  8
VHH-025
100
AcDbCircle
 10
115.891738
 20
581.551541
 30
0.0
 40
0.75
100
AcDbArc
 50
90.0
 51
180.0
  0
LINE
  5
14DE
100
AcDbEntity
  8
VHH-025
100
AcDbLine
 10
127.182396
 20
577.002091
 30
0.0
 11
127.711034
 21
579.645282
 31
0.0
  0
ARC
  5
14DF
100
AcDbEntity
  8
VHH-025
100
AcDbCircle
 10
105.391738
 20
576.551541
 30
0.0
 40
0.25
100
AcDbArc
 50
315.0
 51
90.0
  0
LINE
  5
14E0
100
AcDbEntity
  8
VHH-025
100
AcDbLine
 10
124.436045
 20
579.701023
 30
0.0
 11
123.90793
 21
577.060446
 31
0.0
  0
LINE
  5
14E1
100
AcDbEntity
  8
VHH-025
100
AcDbLine
 10
117.688518
 20
576.551541
 30
0.0
 11
120.811147
 21
576.557697
 31
0.0
  0
LINE
  5
14E2
100
AcDbEntity
  8
VHH-025
100
AcDbLine
 10
121.257438
 20
579.954619
 30
0.0
 11
118.545382
 21
579.954619
 31
0.0
  0
LINE
  5
14E3
100
AcDbEntity
  8
VHH-025
100
AcDbLine
 10
120.982396
 20
577.002091
 30
0.0
 11
121.511034
 21
579.645282
 31
0.0
  0
LINE
  5
14E4
100
AcDbEntity
  8
VHH-025
100
AcDbLine
 10
118.236045
 20
579.701023
 30
0.0
 11
117.70793
 21
577.060446
 31
0.0
  0
LINE
  5
14E5
100
AcDbEntity
  8
VHH-025
100
AcDbLine
 10
127.457438
 20
579.954619
 30
0.0
 11
124.745382
 21
579.954619
 31
0.0
  0
LINE
  5
14E6
100
AcDbEntity
  8
VHH-025
100
AcDbLine
 10
123.888518
 20
576.551541
 30
0.0
 11
127.011147
 21
576.557697
 31
0.0
  0
LINE
  5
14E7
100
AcDbEntity
  8
VHH-025
100
AcDbLine
 10
115.891738
 20
582.301541
 30
0.0
 11
128.891738
 21
582.301541
 31
0.0
  0
LINE
  5
14E8
100
AcDbEntity
  8
VHH-025
100
AcDbLine
 10
140.291738
 20
579.351541
 30
0.0
 11
140.291738
 21
576.151541
 31
0.0
  0
LINE
  5
14E9
100
AcDbEntity
  8
VHH-025
100
AcDbLine
 10
148.891738
 20
599.494917
 30
0.0
 11
153.891738
 21
599.494917
 31
0.0
  0
LINE
  5
14EA
100
AcDbEntity
  8
VHH-025
100
AcDbLine
 10
148.891738
 20
599.494917
 30
0.0
 11
151.391738
 21
595.16479
 31
0.0
  0
LINE
  5
14EB
100
AcDbEntity
  8
VHH-025
100
AcDbLine
 10
151.391738
 20
595.16479
 30
0.0
 11
153.891738
 21
599.494917
 31
0.0
  0
SPLINE
  5
14EC
100
AcDbEntity
  8
VHH-025
100
AcDbSpline
210
0.0
220
0.0
230
-1.0
 70
     8
 71
     3
 72
    14
 73
    10
 74
     0
 42
0.0000001
 43
0.0000001
 40
0.0
 40
0.0
 40
0.0
 40
0.0
 40
8.543455177382728
 40
32.60806185346405
 40
34.09251365044104
 40
35.82256549595564
 40
37.21403762249804
 40
38.48665207093368
 40
38.6143838058074
 40
38.6143838058074
 40
38.6143838058074
 40
38.6143838058074
 10
122.391738428123
 20
608.3729801514041
 30
0.0
 10
119.5424519501339
 20
608.3609811172359
 30
0.0
 10
108.667494712874
 20
608.3151840433106
 30
0.0
 10
96.89776623459147
 20
608.231226788931
 30
0.0
 10
88.20937420696827
 20
607.9590829833205
 30
0.0
 10
86.75786012322168
 20
607.238275151918
 30
0.0
 10
85.92745469660622
 20
605.9360331845164
 30
0.0
 10
85.90336344863681
 20
604.9915641575571
 30
0.0
 10
85.8936889923043
 20
604.519344049338
 30
0.0
 10
85.89282627612192
 20
604.4762831537059
 30
0.0
  0
SPLINE
  5
14ED
100
AcDbEntity
  8
VHH-025
100
AcDbSpline
210
0.0
220
0.0
230
-1.0
 70
     8
 71
     3
 72
    14
 73
    10
 74
     0
 42
0.0000001
 43
0.0000001
 40
0.0
 40
0.0
 40
0.0
 40
0.0
 40
8.543455177382728
 40
32.60806185346405
 40
34.09251365044104
 40
35.82256549595564
 40
37.21403762249804
 40
38.48665207093368
 40
38.6143838058074
 40
38.6143838058074
 40
38.6143838058074
 40
38.6143838058074
 10
122.3961048401615
 20
608.3729801514041
 30
0.0
 10
125.2453913181489
 20
608.3609811172359
 30
0.0
 10
136.1203485554087
 20
608.3151840433106
 30
0.0
 10
147.8900770336913
 20
608.231226788931
 30
0.0
 10
156.5784690613145
 20
607.9590829833205
 30
0.0
 10
158.0299831450611
 20
607.238275151918
 30
0.0
 10
158.8603885716765
 20
605.9360331845164
 30
0.0
 10
158.8844798196459
 20
604.9915641575571
 30
0.0
 10
158.8941542759785
 20
604.519344049338
 30
0.0
 10
158.8950169921608
 20
604.4762831537059
 30
0.0
  0
SPLINE
  5
14FE
100
AcDbEntity
  8
VHH-025
100
AcDbSpline
210
0.0
220
0.0
230
-1.0
 70
     8
 71
     3
 72
    15
 73
    11
 74
     9
 42
0.0000001
 43
0.0000001
 44
0.0000000001
 40
0.0
 40
0.0
 40
0.0
 40
0.0
 40
8.727930916723018
 40
16.25763323255754
 40
20.36216076943259
 40
21.62307303412758
 40
23.69549543386533
 40
25.38624445710601
 40
45.72281463409045
 40
79.43205808847188
 40
79.43205808847188
 40
79.43205808847188
 40
79.43205808847188
 10
247.2558995328554
 20
585.5000001546827
 30
0.0
 10
247.9546780899174
 20
588.3165902787393
 30
0.0
 10
249.2563022205259
 20
593.5630902384969
 30
0.0
 10
251.1863891775297
 20
600.157166517707
 30
0.0
 10
253.4928078555142
 20
603.781205837904
 30
0.0
 10
255.0310616744456
 20
605.7824605104729
 30
0.0
 10
256.7208092476897
 20
606.3205618189416
 30
0.0
 10
264.6568319667282
 20
607.1052661239085
 30
0.0
 10
283.2177544563691
 20
609.0216375837573
 30
0.0
 10
301.185840770026
 20
610.067275076683
 30
0.0
 10
312.3928252755731
 20
610.7194560033035
 30
0.0
 11
247.2558995328554
 21
585.5000001546827
 31
0.0
 11
249.4212334216363
 21
593.9550641542742
 31
0.0
 11
251.9207555168204
 21
601.0577964637991
 31
0.0
 11
254.0891907569466
 21
604.542769191145
 31
0.0
 11
254.9250050295149
 21
605.4868635937496
 31
0.0
 11
256.8411533910047
 21
606.2763634732268
 31
0.0
 11
258.5172620288894
 21
606.4983817013021
 31
0.0
 11
278.7602800305549
 21
608.4467935539819
 31
0.0
 11
312.3928252755731
 21
610.7194560033035
 31
0.0
  0
LINE
  5
14FF
100
AcDbEntity
  8
VHH-025
100
AcDbLine
 10
227.531943
 20
585.5
 30
0.0
 11
247.2559
 21
585.5
 31
0.0
  0
ARC
  5
1500
100
AcDbEntity
  8
VHH-025
100
AcDbCircle
 10
333.641737
 20
579.551541
 30
0.0
 40
0.25
100
AcDbArc
 50
0.0
 51
90.0
  0
ARC
  5
1501
100
AcDbEntity
  8
VHH-025
100
AcDbCircle
 10
331.141737
 20
579.551541
 30
0.0
 40
0.25
100
AcDbArc
 50
90.0
 51
180.0
  0
LINE
  5
1502
100
AcDbEntity
  8
VHH-025
100
AcDbLine
 10
330.891737
 20
576.801541
 30
0.0
 11
329.391737
 21
576.801541
 31
0.0
  0
ARC
  5
1503
100
AcDbEntity
  8
VHH-025
100
AcDbCircle
 10
329.391737
 20
576.551541
 30
0.0
 40
0.25
100
AcDbArc
 50
90.0
 51
225.0
  0
ARC
  5
1504
100
AcDbEntity
  8
VHH-025
100
AcDbCircle
 10
335.391737
 20
576.551541
 30
0.0
 40
0.25
100
AcDbArc
 50
315.0
 51
90.0
  0
LINE
  5
1505
100
AcDbEntity
  8
VHH-025
100
AcDbLine
 10
333.891737
 20
576.801541
 30
0.0
 11
335.391737
 21
576.801541
 31
0.0
  0
LINE
  5
1506
100
AcDbEntity
  8
VHH-025
100
AcDbLine
 10
333.891737
 20
576.801541
 30
0.0
 11
333.891737
 21
579.551541
 31
0.0
  0
LINE
  5
1507
100
AcDbEntity
  8
VHH-025
100
AcDbLine
 10
330.891737
 20
579.551541
 30
0.0
 11
330.891737
 21
576.801541
 31
0.0
  0
ARC
  5
1508
100
AcDbEntity
  8
VHH-025
100
AcDbCircle
 10
345.891737
 20
581.551541
 30
0.0
 40
0.75
100
AcDbArc
 50
90.0
 51
180.0
  0
LINE
  5
1509
100
AcDbEntity
  8
VHH-025
100
AcDbLine
 10
333.641737
 20
579.801541
 30
0.0
 11
331.141737
 21
579.801541
 31
0.0
  0
LINE
  5
150A
100
AcDbEntity
  8
VHH-025
100
AcDbLine
 10
275.048613
 20
585.745316
 30
0.0
 11
289.216063
 21
586.442668
 31
0.0
  0
LINE
  5
150B
100
AcDbEntity
  8
VHH-025
100
AcDbLine
 10
274.284524
 20
587.734137
 30
0.0
 11
296.628293
 21
588.778119
 31
0.0
  0
LINE
  5
150C
100
AcDbEntity
  8
VHH-025
100
AcDbLine
 10
276.094176
 20
585.135512
 30
0.0
 11
288.119845
 21
585.753763
 31
0.0
  0
SPLINE
  5
150D
100
AcDbEntity
  8
VHH-025
100
AcDbSpline
210
0.0
220
0.0
230
-1.0
 70
     8
 71
     3
 72
    11
 73
     7
 74
     5
 42
0.0000001
 43
0.0000001
 44
0.0000000001
 40
0.0
 40
0.0
 40
0.0
 40
0.0
 40
0.7911843907099164
 40
1.600893155508356
 40
2.251444458122481
 40
2.582196256356861
 40
2.582196256356861
 40
2.582196256356861
 40
2.582196256356861
 10
272.6033685579614
 20
586.0385176264112
 30
0.0
 10
272.6468290370307
 20
586.3045943193709
 30
0.0
 10
272.7347675559073
 20
586.8429774846624
 30
0.0
 10
273.3054690211042
 20
587.3992969230032
 30
0.0
 10
273.8572024254255
 20
587.6387947754952
 30
0.0
 10
274.1768018222277
 20
587.7101023783369
 30
0.0
 10
274.2845239675216
 20
587.7341368666079
 30
0.0
 11
272.6033685579614
 21
586.0385176264112
 31
0.0
 11
272.8113865303175
 21
586.8018663431062
 31
0.0
 11
273.3703154928762
 21
587.3877218701814
 31
0.0
 11
273.9633231614907
 21
587.6552268277005
 31
0.0
 11
274.2845239675216
 21
587.7341368666079
 31
0.0
  0
SPLINE
  5
150E
100
AcDbEntity
  8
VHH-025
100
AcDbSpline
210
0.0
220
0.0
230
-1.0
 70
     8
 71
     3
 72
    12
 73
     8
 74
     6
 42
0.0000001
 43
0.0000001
 44
0.0000000001
 40
0.0
 40
0.0
 40
0.0
 40
0.0
 40
0.460609787038649
 40
0.8428341308476516
 40
1.231136252854545
 40
1.532631450480557
 40
1.823032378360215
 40
1.823032378360215
 40
1.823032378360215
 40
1.823032378360215
 10
275.0199948927156
 20
583.9202051532488
 30
0.0
 10
275.0304189497532
 20
584.0740984375377
 30
0.0
 10
275.049493123382
 20
584.3556958246467
 30
0.0
 10
275.2138480843117
 20
584.7431231334708
 30
0.0
 10
275.4891467510486
 20
584.9909754753489
 30
0.0
 10
275.8016376612383
 20
585.101669502637
 30
0.0
 10
275.997889430295
 20
585.1243729721419
 30
0.0
 10
276.0941760815776
 20
585.1355119344129
 30
0.0
 11
275.0199948927156
 21
583.9202051532488
 31
0.0
 11
275.079175073487
 21
584.3769973183738
 31
0.0
 11
275.2364158564205
 21
584.7253804195466
 31
0.0
 11
275.5249913629095
 21
584.9851932656679
 31
0.0
 11
275.8071342666162
 21
585.0914699615118
 31
0.0
 11
276.0941760815776
 21
585.1355119344129
 31
0.0
  0
ARC
  5
150F
100
AcDbEntity
  8
VHH-025
100
AcDbCircle
 10
275.073195
 20
585.24592
 30
0.0
 40
0.5
100
AcDbArc
 50
92.817949
 51
179.819431
  0
SPLINE
  5
1510
100
AcDbEntity
  8
VHH-025
100
AcDbSpline
210
0.0
220
0.0
230
-1.0
 70
     8
 71
     3
 72
    20
 73
    16
 74
     0
 42
0.0000001
 43
0.0000001
 40
0.0
 40
0.0
 40
0.0
 40
0.0
 40
0.411372432094715
 40
0.411372432094715
 40
0.7549641539760199
 40
0.7549641539760199
 40
1.460265566936419
 40
1.460265566936419
 40
1.780008105651267
 40
1.780008105651267
 40
2.128014443002301
 40
2.128014443002301
 40
2.476020780353334
 40
2.476020780353334
 40
2.570156969732271
 40
2.570156969732271
 40
2.570156969732271
 40
2.570156969732271
 10
296.5768339569867
 20
588.0800127985572
 30
0.0
 10
296.7155551580444
 20
588.0697873846679
 30
0.0
 10
296.8377544013374
 20
588.0601437260479
 30
0.0
 10
297.0254323705858
 20
588.0325845736511
 30
0.0
 10
297.0964717670913
 20
588.0165616940017
 30
0.0
 10
297.2731419158617
 20
587.9578439158926
 30
0.0
 10
297.3702577882695
 20
587.8945793828247
 30
0.0
 10
297.4769111362411
 20
587.7755918343959
 30
0.0
 10
297.5055118272312
 20
587.7339537645516
 30
0.0
 10
297.5494020078231
 20
587.6489294260568
 30
0.0
 10
297.5619055249635
 20
587.6138866018777
 30
0.0
 10
297.5865213165607
 20
587.4890743606997
 30
0.0
 10
297.5952249995507
 20
587.4031906175982
 30
0.0
 10
297.603597386832
 20
587.2677466571963
 30
0.0
 10
297.6052887766682
 20
587.2374127361122
 30
0.0
 10
297.6070555909527
 20
587.2056418385059
 30
0.0
  0
SPLINE
  5
1511
100
AcDbEntity
  8
VHH-025
100
AcDbSpline
210
0.0
220
0.0
230
-1.0
 70
     8
 71
     3
 72
    11
 73
     7
 74
     5
 42
0.0000001
 43
0.0000001
 44
0.0000000001
 40
0.0
 40
0.0
 40
0.0
 40
0.0
 40
0.8012084873059352
 40
1.355387018409139
 40
1.955784421317266
 40
2.570156969731423
 40
2.570156969731423
 40
2.570156969731423
 40
2.570156969731423
 10
296.62829273033
 20
588.7781188038648
 30
0.0
 10
296.8984727302163
 20
588.7582033021068
 30
0.0
 10
297.3555303753631
 20
588.7245126797838
 30
0.0
 10
297.9314953937115
 20
588.3786628649511
 30
0.0
 10
298.2716450530093
 20
587.861843852963
 30
0.0
 10
298.2944447107945
 20
587.4518598500727
 30
0.0
 10
298.3059756873726
 20
587.2445095477456
 30
0.0
 11
296.62829273033
 21
588.7781188038648
 31
0.0
 11
297.4185986062429
 21
588.6463930940412
 31
0.0
 11
297.8906983097995
 21
588.3561591982993
 31
0.0
 11
298.2174664301573
 21
587.8524731483271
 31
0.0
 11
298.3059756873726
 21
587.2445095477456
 31
0.0
  0
SPLINE
  5
1512
100
AcDbEntity
  8
VHH-025
100
AcDbSpline
210
0.0
220
0.0
230
-1.0
 70
     8
 71
     3
 72
    11
 73
     7
 74
     5
 42
0.0000001
 43
0.0000001
 44
0.0000000001
 40
0.0
 40
0.0
 40
0.0
 40
0.0
 40
0.3788822097076336
 40
0.7856242620079092
 40
1.206550869508587
 40
1.477512281568232
 40
1.477512281568232
 40
1.477512281568232
 40
1.477512281568232
 10
288.119844953936
 20
585.7537630751854
 30
0.0
 10
288.2479771970274
 20
585.7545274824944
 30
0.0
 10
288.5136634613569
 20
585.7561125052602
 30
0.0
 10
288.8738980131293
 20
585.5049528597439
 30
0.0
 10
288.9755626198567
 20
585.1335306680008
 30
0.0
 10
288.9779740716783
 20
584.903666846356
 30
0.0
 10
288.9789184591691
 20
584.8136461725857
 30
0.0
 11
288.119844953936
 21
585.7537630751854
 31
0.0
 11
288.4970023151172
 21
585.7176513909293
 31
0.0
 11
288.8284809587285
 21
585.4819375688079
 31
0.0
 11
288.9666354623559
 21
585.0843290401903
 31
0.0
 11
288.9789184591691
 21
584.8136461725857
 31
0.0
  0
CIRCLE
  5
1513
100
AcDbEntity
  8
VHH-025
100
AcDbCircle
 10
294.581311
 20
577.554525
 30
0.0
 40
2.21318
  0
CIRCLE
  5
1514
100
AcDbEntity
  8
VHH-025
100
AcDbCircle
 10
294.581311
 20
577.554525
 30
0.0
 40
1.51318
  0
ARC
  5
1515
100
AcDbEntity
  8
VHH-025
100
AcDbCircle
 10
289.240644
 20
585.943273
 30
0.0
 40
0.5
100
AcDbArc
 50
359.745727
 51
92.817949
  0
LINE
  5
1516
100
AcDbEntity
  8
VHH-025
100
AcDbLine
 10
291.685992
 20
587.846433
 30
0.0
 11
296.660964
 21
588.078882
 31
0.0
  0
SPLINE
  5
161C
100
AcDbEntity
  8
VHH-025
100
AcDbSpline
210
0.0
220
0.0
230
-1.0
 70
     8
 71
     3
 72
    15
 73
    11
 74
     9
 42
0.0000001
 43
0.0000001
 44
0.0000000001
 40
0.0
 40
0.0
 40
0.0
 40
0.0
 40
8.727930916723018
 40
16.25763323255694
 40
20.36216076943198
 40
21.62307303412697
 40
23.69549543386472
 40
25.38624445710541
 40
45.72281463408984
 40
79.43205808847128
 40
79.43205808847128
 40
79.43205808847128
 40
79.43205808847128
 10
457.5319414762116
 20
585.5000001546827
 30
0.0
 10
456.8331629191493
 20
588.3165902787391
 30
0.0
 10
455.5315387885404
 20
593.5630902384963
 30
0.0
 10
453.6014518315395
 20
600.1571665177075
 30
0.0
 10
451.2950331535545
 20
603.781205837904
 30
0.0
 10
449.7567793346233
 20
605.7824605104731
 30
0.0
 10
448.067031761379
 20
606.3205618189416
 30
0.0
 10
440.1310090423406
 20
607.1052661239084
 30
0.0
 10
421.5700865526997
 20
609.0216375837576
 30
0.0
 10
403.6020002390428
 20
610.0672750766831
 30
0.0
 10
392.3950157334957
 20
610.7194560033035
 30
0.0
 11
457.5319414762116
 21
585.5000001546827
 31
0.0
 11
455.3666075874307
 21
593.9550641542742
 31
0.0
 11
452.8670854922483
 21
601.0577964637991
 31
0.0
 11
450.6986502521222
 21
604.542769191145
 31
0.0
 11
449.8628359795539
 21
605.4868635937496
 31
0.0
 11
447.946687618064
 21
606.2763634732268
 31
0.0
 11
446.2705789801794
 21
606.4983817013021
 31
0.0
 11
426.0275609785139
 21
608.4467935539819
 31
0.0
 11
392.3950157334957
 21
610.7194560033035
 31
0.0
  0
ARC
  5
161D
100
AcDbEntity
  8
VHH-025
100
AcDbCircle
 10
356.68742
 20
-119.149534
 30
0.0
 40
730.516587
100
AcDbArc
 50
87.19827
 51
90.336663
  0
LINE
  5
161E
100
AcDbEntity
  8
VHH-025
100
AcDbLine
 10
357.457437
 20
579.954619
 30
0.0
 11
354.745381
 21
579.954619
 31
0.0
  0
LINE
  5
161F
100
AcDbEntity
  8
VHH-025
100
AcDbLine
 10
354.436044
 20
579.701023
 30
0.0
 11
353.907928
 21
577.060446
 31
0.0
  0
LINE
  5
1620
100
AcDbEntity
  8
VHH-025
100
AcDbLine
 10
350.982395
 20
577.002091
 30
0.0
 11
351.511033
 21
579.645282
 31
0.0
  0
LINE
  5
1621
100
AcDbEntity
  8
VHH-025
100
AcDbLine
 10
348.236044
 20
579.701023
 30
0.0
 11
347.707928
 21
577.060446
 31
0.0
  0
LINE
  5
1622
100
AcDbEntity
  8
VHH-025
100
AcDbLine
 10
353.888517
 20
576.551541
 30
0.0
 11
357.011146
 21
576.557697
 31
0.0
  0
LINE
  5
1623
100
AcDbEntity
  8
VHH-025
100
AcDbLine
 10
347.688517
 20
576.551541
 30
0.0
 11
350.811146
 21
576.557697
 31
0.0
  0
LINE
  5
1624
100
AcDbEntity
  8
VHH-025
100
AcDbLine
 10
351.257437
 20
579.954619
 30
0.0
 11
348.545381
 21
579.954619
 31
0.0
  0
LINE
  5
1625
100
AcDbEntity
  8
VHH-025
100
AcDbLine
 10
357.182395
 20
577.002091
 30
0.0
 11
357.711033
 21
579.645282
 31
0.0
  0
ARC
  5
1626
100
AcDbEntity
  8
VHH-025
100
AcDbCircle
 10
358.891737
 20
581.551541
 30
0.0
 40
0.75
100
AcDbArc
 50
0.0
 51
90.0
  0
SPLINE
  5
1627
100
AcDbEntity
  8
VHH-025
100
AcDbSpline
210
0.0
220
0.0
230
-1.0
 70
     8
 71
     3
 72
    20
 73
    16
 74
     0
 42
0.0000001
 43
0.0000001
 40
3.141592653589793
 40
3.141592653589793
 40
3.141592653589793
 40
3.141592653589793
 40
3.566852563487359
 40
3.566852563487359
 40
4.097334864786621
 40
4.097334864786621
 40
4.627817166085884
 40
4.627817166085884
 40
5.158299467385146
 40
5.158299467385146
 40
5.688781768684408
 40
5.688781768684408
 40
6.21926406998367
 40
6.21926406998367
 40
6.283185307179586
 40
6.283185307179586
 40
6.283185307179586
 40
6.283185307179586
 10
375.4917372985155
 20
576.001541205112
 30
0.0
 10
375.4917372985155
 20
576.0951729922912
 30
0.0
 10
375.4686755375268
 20
576.1890425354882
 30
0.0
 10
375.3645810581192
 20
576.3875422148735
 30
0.0
 10
375.2694909145293
 20
576.4888274928794
 30
0.0
 10
375.0229690211826
 20
576.6392383784955
 30
0.0
 10
374.8720698929328
 20
576.6874160518541
 30
0.0
 10
374.5607317361764
 20
576.710210341565
 30
0.0
 10
374.4011791607527
 20
576.6847236991329
 30
0.0
 10
374.1242788570571
 20
576.5704091463662
 30
0.0
 10
374.0077011891835
 20
576.4822256169395
 30
0.0
 10
373.8468501118341
 20
576.2767128055961
 30
0.0
 10
373.8019467552958
 20
576.1604139383412
 30
0.0
 10
373.7922580720232
 20
576.0296890004624
 30
0.0
 10
373.7917372985148
 20
576.0156150915467
 30
0.0
 10
373.7917372985148
 20
576.001541205112
 30
0.0
  0
LINE
  5
1628
100
AcDbEntity
  8
VHH-025
100
AcDbLine
 10
370.291737
 20
579.351541
 30
0.0
 11
370.291737
 21
576.151541
 31
0.0
  0
CIRCLE
  5
1629
100
AcDbEntity
  8
VHH-025
100
AcDbCircle
 10
381.391737
 20
590.051541
 30
0.0
 40
2.0
  0
LINE
  5
162A
100
AcDbEntity
  8
VHH-025
100
AcDbLine
 10
378.891737
 20
599.494917
 30
0.0
 11
383.891737
 21
599.494917
 31
0.0
  0
LINE
  5
162B
100
AcDbEntity
  8
VHH-025
100
AcDbLine
 10
378.891737
 20
599.494917
 30
0.0
 11
381.391737
 21
595.16479
 31
0.0
  0
LINE
  5
162C
100
AcDbEntity
  8
VHH-025
100
AcDbLine
 10
381.391737
 20
595.16479
 30
0.0
 11
383.891737
 21
599.494917
 31
0.0
  0
SPLINE
  5
162D
100
AcDbEntity
  8
VHH-025
100
AcDbSpline
210
0.0
220
0.0
230
-1.0
 70
     8
 71
     3
 72
    14
 73
    10
 74
     0
 42
0.0000001
 43
0.0000001
 40
0.0
 40
0.0
 40
0.0
 40
0.0
 40
8.543455177382728
 40
32.60806185346405
 40
34.09251365044104
 40
35.82256549595564
 40
37.21403762249804
 40
38.48665207093368
 40
38.6143838058074
 40
38.6143838058074
 40
38.6143838058074
 40
38.6143838058074
 10
352.3961037105536
 20
608.3729801514041
 30
0.0
 10
355.2453901885428
 20
608.3609811172359
 30
0.0
 10
366.1203474258009
 20
608.3151840433106
 30
0.0
 10
377.8900759040852
 20
608.2312267889306
 30
0.0
 10
386.5784679317066
 20
607.95908298332
 30
0.0
 10
388.0299820154532
 20
607.2382751519175
 30
0.0
 10
388.8603874420687
 20
605.936033184516
 30
0.0
 10
388.8844786900381
 20
604.9915641575567
 30
0.0
 10
388.8941531463724
 20
604.519344049338
 30
0.0
 10
388.895015862553
 20
604.4762831537059
 30
0.0
  0
LINE
  5
162E
100
AcDbEntity
  8
VHH-025
100
AcDbLine
 10
457.531941
 20
585.5
 30
0.0
 11
467.390649
 21
585.5
 31
0.0
  0
ENDSEC
  0
SECTION
  2
OBJECTS
  0
DICTIONARY
  5
C
100
AcDbDictionary
  3
ACAD_GROUP
350
D
  3
ACAD_MLINESTYLE
350
E
  3
AMACAD
350
975
  0
DICTIONARY
  5
D
102
{ACAD_REACTORS
330
C
102
}
100
AcDbDictionary
  0
DICTIONARY
  5
E
102
{ACAD_REACTORS
330
C
102
}
100
AcDbDictionary
  3
STANDARD
350
1B
  0
DICTIONARY
  5
975
102
{ACAD_REACTORS
330
C
102
}
100
AcDbDictionary
  3
AM_LOADER
350
976
  0
MLINESTYLE
  5
1B
102
{ACAD_REACTORS
330
E
102
}
100
AcDbMlineStyle
  2
STANDARD
 70
     0
  3

 62
     0
 51
90.0
 52
90.0
 71
     2
 49
0.5
 62
   256
  6
BYLAYER
 49
-0.5
 62
   256
  6
BYLAYER
  0
AMLOADER
  5
976
102
{ACAD_REACTORS
330
975
102
}
100
AMLoader
 90
        1
 70
     3
 70
     0
 70
   921
 70
   861
280
     0
  0
ENDSEC
  0
EOF
