  0
SECTION
  2
HEADER
  9
$ACADVER
  1
AC1014
  9
$ACADMAINTVER
 70
     5
  9
$DWGCODEPAGE
  3
ANSI_1252
  9
$INSBASE
 10
0.0
 20
0.0
 30
0.0
  9
$EXTMIN
 10
-8.870521
 20
-509.213508
 30
0.0
  9
$EXTMAX
 10
474.815216
 20
29.693345
 30
0.0
  9
$LIMMIN
 10
0.0
 20
0.0
  9
$LIMMAX
 10
420.0
 20
297.0
  9
$ORTHOMODE
 70
     1
  9
$REGENMODE
 70
     1
  9
$FILLMODE
 70
     1
  9
$QTEXTMODE
 70
     0
  9
$MIRRTEXT
 70
     0
  9
$DRAGMODE
 70
     2
  9
$LTSCALE
 40
1.0
  9
$OSMODE
 70
    39
  9
$ATTMODE
 70
     1
  9
$TEXTSIZE
 40
3.5
  9
$TRACEWID
 40
0.05
  9
$TEXTSTYLE
  7
ROMANS
  9
$CLAYER
  8
0
  9
$CELTYPE
  6
BYLAYER
  9
$CECOLOR
 62
   256
  9
$CELTSCALE
 40
1.0
  9
$DELOBJ
 70
     1
  9
$DISPSILH
 70
     0
  9
$DIMSCALE
 40
1.0
  9
$DIMASZ
 40
2.5
  9
$DIMEXO
 40
1.5
  9
$DIMDLI
 40
5.0
  9
$DIMRND
 40
0.0
  9
$DIMDLE
 40
0.0
  9
$DIMEXE
 40
1.0
  9
$DIMTP
 40
0.0
  9
$DIMTM
 40
0.0
  9
$DIMTXT
 40
3.0
  9
$DIMCEN
 40
0.0
  9
$DIMTSZ
 40
0.0
  9
$DIMTOL
 70
     0
  9
$DIMLIM
 70
     0
  9
$DIMTIH
 70
     0
  9
$DIMTOH
 70
     0
  9
$DIMSE1
 70
     0
  9
$DIMSE2
 70
     0
  9
$DIMTAD
 70
     1
  9
$DIMZIN
 70
     8
  9
$DIMBLK
  1

  9
$DIMASO
 70
     1
  9
$DIMSHO
 70
     1
  9
$DIMPOST
  1

  9
$DIMAPOST
  1

  9
$DIMALT
 70
     0
  9
$DIMALTD
 70
     2
  9
$DIMALTF
 40
25.4
  9
$DIMLFAC
 40
1.0
  9
$DIMTOFL
 70
     1
  9
$DIMTVP
 40
0.0
  9
$DIMTIX
 70
     0
  9
$DIMSOXD
 70
     0
  9
$DIMSAH
 70
     0
  9
$DIMBLK1
  1

  9
$DIMBLK2
  1

  9
$DIMSTYLE
  2
STANDAARD
  9
$DIMCLRD
 70
   256
  9
$DIMCLRE
 70
   256
  9
$DIMCLRT
 70
     2
  9
$DIMTFAC
 40
0.75
  9
$DIMGAP
 40
1.0
  9
$DIMJUST
 70
     0
  9
$DIMSD1
 70
     0
  9
$DIMSD2
 70
     0
  9
$DIMTOLJ
 70
     1
  9
$DIMTZIN
 70
     8
  9
$DIMALTZ
 70
     8
  9
$DIMALTTZ
 70
     8
  9
$DIMFIT
 70
     0
  9
$DIMUPT
 70
     0
  9
$DIMUNIT
 70
     2
  9
$DIMDEC
 70
     2
  9
$DIMTDEC
 70
     2
  9
$DIMALTU
 70
     2
  9
$DIMALTTD
 70
     2
  9
$DIMTXSTY
  7
ROMANS
  9
$DIMAUNIT
 70
     0
  9
$LUNITS
 70
     2
  9
$LUPREC
 70
     2
  9
$SKETCHINC
 40
0.1
  9
$FILLETRAD
 40
10.0
  9
$AUNITS
 70
     0
  9
$AUPREC
 70
     2
  9
$MENU
  1
wtb2
  9
$ELEVATION
 40
0.0
  9
$PELEVATION
 40
0.0
  9
$THICKNESS
 40
0.0
  9
$LIMCHECK
 70
     0
  9
$BLIPMODE
 70
     0
  9
$CHAMFERA
 40
1.6
  9
$CHAMFERB
 40
2.5
  9
$CHAMFERC
 40
0.0
  9
$CHAMFERD
 40
0.0
  9
$SKPOLY
 70
     0
  9
$TDCREATE
 40
2452466.423157523
  9
$TDUPDATE
 40
2452466.680371828
  9
$TDINDWG
 40
0.0058132639
  9
$TDUSRTIMER
 40
0.0058132639
  9
$USRTIMER
 70
     1
  9
$ANGBASE
 50
0.0
  9
$ANGDIR
 70
     0
  9
$PDMODE
 70
     3
  9
$PDSIZE
 40
0.0
  9
$PLINEWID
 40
0.0
  9
$COORDS
 70
     2
  9
$SPLFRAME
 70
     0
  9
$SPLINETYPE
 70
     6
  9
$SPLINESEGS
 70
     8
  9
$ATTDIA
 70
     0
  9
$ATTREQ
 70
     1
  9
$HANDLING
 70
     1
  9
$HANDSEED
  5
17BE
  9
$SURFTAB1
 70
     6
  9
$SURFTAB2
 70
     6
  9
$SURFTYPE
 70
     6
  9
$SURFU
 70
     6
  9
$SURFV
 70
     6
  9
$UCSNAME
  2

  9
$UCSORG
 10
0.0
 20
0.0
 30
0.0
  9
$UCSXDIR
 10
1.0
 20
0.0
 30
0.0
  9
$UCSYDIR
 10
0.0
 20
1.0
 30
0.0
  9
$PUCSNAME
  2

  9
$PUCSORG
 10
0.0
 20
0.0
 30
0.0
  9
$PUCSXDIR
 10
1.0
 20
0.0
 30
0.0
  9
$PUCSYDIR
 10
0.0
 20
1.0
 30
0.0
  9
$USERI1
 70
     0
  9
$USERI2
 70
     0
  9
$USERI3
 70
     0
  9
$USERI4
 70
     0
  9
$USERI5
 70
     0
  9
$USERR1
 40
0.0
  9
$USERR2
 40
0.0
  9
$USERR3
 40
0.0
  9
$USERR4
 40
0.0
  9
$USERR5
 40
0.0
  9
$WORLDVIEW
 70
     1
  9
$SHADEDGE
 70
     3
  9
$SHADEDIF
 70
    70
  9
$TILEMODE
 70
     1
  9
$MAXACTVP
 70
    16
  9
$PINSBASE
 10
0.0
 20
0.0
 30
0.0
  9
$PLIMCHECK
 70
     0
  9
$PEXTMIN
 10
1.000000E+20
 20
1.000000E+20
 30
1.000000E+20
  9
$PEXTMAX
 10
-1.000000E+20
 20
-1.000000E+20
 30
-1.000000E+20
  9
$PLIMMIN
 10
0.0
 20
0.0
  9
$PLIMMAX
 10
12.0
 20
9.0
  9
$UNITMODE
 70
     0
  9
$VISRETAIN
 70
     0
  9
$PLINEGEN
 70
     0
  9
$PSLTSCALE
 70
     0
  9
$TREEDEPTH
 70
  3020
  9
$PICKSTYLE
 70
     1
  9
$CMLSTYLE
  2
STANDARD
  9
$CMLJUST
 70
     0
  9
$CMLSCALE
 40
1.0
  9
$PROXYGRAPHICS
 70
     1
  9
$MEASUREMENT
 70
     1
  0
ENDSEC
  0
SECTION
  2
CLASSES
  0
CLASS
  1
LWPOLYLINE
  2
AcDbPolyline
  3
"AutoCAD"
 90
        0
280
     0
281
     1
  0
CLASS
  1
AMLOADER
  2
AMLoader
  3
AMAcad
 90
        0
280
     0
281
     0
  0
ENDSEC
  0
SECTION
  2
TABLES
  0
TABLE
  2
VPORT
  5
8
100
AcDbSymbolTable
 70
     2
  0
VPORT
  5
17BD
100
AcDbSymbolTableRecord
100
AcDbViewportTableRecord
  2
*ACTIVE
 70
     0
 10
0.0
 20
0.0
 11
1.0
 21
1.0
 12
232.972348
 22
-239.760081
 13
0.0
 23
0.0
 14
2.5
 24
2.5
 15
5.0
 25
5.0
 16
0.0
 26
0.0
 36
1.0
 17
0.0
 27
0.0
 37
0.0
 40
544.973346
 41
1.650376
 42
50.0
 43
0.0
 44
0.0
 50
0.0
 51
0.0
 71
     0
 72
 20000
 73
     1
 74
     0
 75
     0
 76
     0
 77
     0
 78
     1
  0
ENDTAB
  0
TABLE
  2
LTYPE
  5
5
100
AcDbSymbolTable
 70
     1
  0
LTYPE
  5
12
100
AcDbSymbolTableRecord
100
AcDbLinetypeTableRecord
  2
BYBLOCK
 70
     0
  3

 72
    65
 73
     0
 40
0.0
  0
LTYPE
  5
13
100
AcDbSymbolTableRecord
100
AcDbLinetypeTableRecord
  2
BYLAYER
 70
     0
  3

 72
    65
 73
     0
 40
0.0
  0
LTYPE
  5
14
100
AcDbSymbolTableRecord
100
AcDbLinetypeTableRecord
  2
CONTINUOUS
 70
     0
  3
Solid line
 72
    65
 73
     0
 40
0.0
  0
ENDTAB
  0
TABLE
  2
LAYER
  5
2
100
AcDbSymbolTable
 70
     4
  0
LAYER
  5
F
100
AcDbSymbolTableRecord
100
AcDbLayerTableRecord
  2
0
 70
     0
 62
     8
  6
CONTINUOUS
  0
LAYER
  5
996
100
AcDbSymbolTableRecord
100
AcDbLayerTableRecord
  2
VHH-050
 70
     0
 62
     4
  6
CONTINUOUS
  0
LAYER
  5
997
100
AcDbSymbolTableRecord
100
AcDbLayerTableRecord
  2
VHH-025
 70
     0
 62
     7
  6
CONTINUOUS
  0
LAYER
  5
998
100
AcDbSymbolTableRecord
100
AcDbLayerTableRecord
  2
VHH-070
 70
     0
 62
     4
  6
CONTINUOUS
  0
ENDTAB
  0
TABLE
  2
STYLE
  5
3
100
AcDbSymbolTable
 70
     2
  0
STYLE
  5
10
100
AcDbSymbolTableRecord
100
AcDbTextStyleTableRecord
  2
STANDARD
 70
     0
 40
0.0
 41
1.0
 50
0.0
 71
     0
 42
15.0
  3
txt
  4

  0
STYLE
  5
1C
100
AcDbSymbolTableRecord
100
AcDbTextStyleTableRecord
  2
ROMANS
 70
     0
 40
0.0
 41
1.0
 50
0.0
 71
     0
 42
3.5
  3
romans
  4

  0
ENDTAB
  0
TABLE
  2
VIEW
  5
6
100
AcDbSymbolTable
 70
     2
  0
VIEW
  5
600
100
AcDbSymbolTableRecord
100
AcDbViewTableRecord
  2
VIEW0
 70
     0
 40
297.0
 10
210.0
 20
148.5
 41
420.0
 11
0.0
 21
0.0
 31
1.0
 12
0.0
 22
0.0
 32
0.0
 42
50.0
 43
0.0
 44
0.0
 50
0.0
 71
     0
  0
VIEW
  5
601
100
AcDbSymbolTableRecord
100
AcDbViewTableRecord
  2
VIEW1
 70
     0
 40
297.0
 10
210.0
 20
148.5
 41
420.0
 11
0.0
 21
0.0
 31
1.0
 12
0.0
 22
0.0
 32
0.0
 42
50.0
 43
0.0
 44
0.0
 50
0.0
 71
     0
  0
ENDTAB
  0
TABLE
  2
UCS
  5
7
100
AcDbSymbolTable
 70
     0
  0
ENDTAB
  0
TABLE
  2
APPID
  5
9
100
AcDbSymbolTable
 70
     3
  0
APPID
  5
11
100
AcDbSymbolTableRecord
100
AcDbRegAppTableRecord
  2
ACAD
 70
     0
  0
APPID
  5
37E
100
AcDbSymbolTableRecord
100
AcDbRegAppTableRecord
  2
ADMEPROFILELINK
 70
     0
  0
APPID
  5
974
100
AcDbSymbolTableRecord
100
AcDbRegAppTableRecord
  2
AMACAD
 70
     0
  0
ENDTAB
  0
TABLE
  2
DIMSTYLE
  5
A
100
AcDbSymbolTable
 70
     2
  0
DIMSTYLE
105
4E
100
AcDbSymbolTableRecord
100
AcDbDimStyleTableRecord
  2
STANDARD
 70
     0
  3

  4

  5

  6

  7

 40
1.0
 41
2.2
 42
1.5
 43
7.0
 44
1.2
 45
0.0
 46
0.0
 47
0.0
 48
0.0
140
2.5
141
-3.0
142
0.0
143
25.4
144
1.0
145
0.0
146
1.0
147
0.5
 71
     0
 72
     0
 73
     0
 74
     0
 75
     0
 76
     0
 77
     1
 78
     8
170
     0
171
     2
172
     1
173
     0
174
     0
175
     0
176
   256
177
   256
178
     2
270
     2
271
     4
272
     4
273
     2
274
     2
340
10
275
     0
280
     0
281
     0
282
     0
283
     1
284
     0
285
     0
286
     0
287
     3
288
     0
  0
DIMSTYLE
105
190
100
AcDbSymbolTableRecord
100
AcDbDimStyleTableRecord
  2
STANDAARD
 70
     0
  3

  4

  5

  6

  7

 40
1.0
 41
2.5
 42
1.5
 43
5.0
 44
1.0
 45
0.0
 46
0.0
 47
0.0
 48
0.0
140
3.0
141
0.0
142
0.0
143
25.4
144
1.0
145
0.0
146
0.75
147
1.0
 71
     0
 72
     0
 73
     0
 74
     0
 75
     0
 76
     0
 77
     1
 78
     8
170
     0
171
     2
172
     1
173
     0
174
     0
175
     0
176
   256
177
   256
178
     2
270
     2
271
     2
272
     2
273
     2
274
     2
340
1C
275
     0
280
     0
281
     0
282
     0
283
     1
284
     8
285
     8
286
     8
287
     0
288
     0
  0
ENDTAB
  0
TABLE
  2
BLOCK_RECORD
  5
1
100
AcDbSymbolTable
 70
     4
  0
BLOCK_RECORD
  5
18
100
AcDbSymbolTableRecord
100
AcDbBlockTableRecord
  2
*MODEL_SPACE
  0
BLOCK_RECORD
  5
15
100
AcDbSymbolTableRecord
100
AcDbBlockTableRecord
  2
*PAPER_SPACE
  0
BLOCK_RECORD
  5
1B2
100
AcDbSymbolTableRecord
100
AcDbBlockTableRecord
  2
TEK_INFO
  0
BLOCK_RECORD
  5
987
100
AcDbSymbolTableRecord
100
AcDbBlockTableRecord
  2
A$C7A7B4A19
  0
BLOCK_RECORD
  5
98C
100
AcDbSymbolTableRecord
100
AcDbBlockTableRecord
  2
A$C605007EB
  0
BLOCK_RECORD
  5
991
100
AcDbSymbolTableRecord
100
AcDbBlockTableRecord
  2
A$C32063EEB
  0
ENDTAB
  0
ENDSEC
  0
SECTION
  2
BLOCKS
  0
BLOCK
  5
46
100
AcDbEntity
  8
0
100
AcDbBlockBegin
  2
*MODEL_SPACE
 70
     0
 10
0.0
 20
0.0
 30
0.0
  3
*MODEL_SPACE
  1

  0
ENDBLK
  5
47
100
AcDbEntity
  8
0
100
AcDbBlockEnd
  0
BLOCK
  5
44
100
AcDbEntity
 67
     1
  8
0
100
AcDbBlockBegin
  2
*PAPER_SPACE
 70
     0
 10
0.0
 20
0.0
 30
0.0
  3
*PAPER_SPACE
  1

  0
ENDBLK
  5
45
100
AcDbEntity
 67
     1
  8
0
100
AcDbBlockEnd
  0
BLOCK
  5
1B9
100
AcDbEntity
  8
0
100
AcDbBlockBegin
  2
TEK_INFO
 70
     2
 10
0.0
 20
0.0
 30
0.0
  3
TEK_INFO
  1

  0
ATTDEF
  5
276
100
AcDbEntity
  8
0
100
AcDbText
 10
15.0
 20
31.5
 30
0.0
 40
2.5
  1
A3
  7
ROMANS
100
AcDbAttributeDefinition
  3

  2
FORMAAT
 70
     9
  0
ATTDEF
  5
277
100
AcDbEntity
  8
0
100
AcDbText
 10
15.0
 20
27.5
 30
0.0
 40
2.5
  1
hor
  7
ROMANS
100
AcDbAttributeDefinition
  3

  2
POSITIE
 70
     9
  0
ATTDEF
  5
278
100
AcDbEntity
  8
0
100
AcDbText
 10
15.0
 20
23.5
 30
0.0
 40
2.5
  1
1
  7
ROMANS
100
AcDbAttributeDefinition
  3

  2
AANTAL
 70
     9
  0
ATTDEF
  5
279
100
AcDbEntity
  8
0
100
AcDbText
 10
15.0
 20
19.5
 30
0.0
 40
2.5
  1
1
  7
ROMANS
100
AcDbAttributeDefinition
  3

  2
TEKSCHAAL
 70
     9
  0
ATTDEF
  5
27A
100
AcDbEntity
  8
0
100
AcDbText
 10
15.0
 20
15.5
 30
0.0
 40
2.5
  1
1
  7
ROMANS
100
AcDbAttributeDefinition
  3

  2
SNAPSCHAAL
 70
     9
  0
ATTDEF
  5
27B
100
AcDbEntity
  8
0
100
AcDbText
 10
15.0
 20
11.5
 30
0.0
 40
2.5
  1
1
  7
ROMANS
100
AcDbAttributeDefinition
  3

  2
BLADAANTAL
 70
     9
  0
ENDBLK
  5
1BA
100
AcDbEntity
  8
0
100
AcDbBlockEnd
  0
BLOCK
  5
98A
100
AcDbEntity
  8
0
100
AcDbBlockBegin
  2
A$C7A7B4A19
 70
     0
 10
0.0
 20
0.0
 30
0.0
  3
A$C7A7B4A19
  1

  0
LINE
  5
988
100
AcDbEntity
  8
VHH-050
100
AcDbLine
 10
0.000002
 20
17.677669
 30
0.0
 11
35.355341
 21
17.677669
 31
0.0
  0
LINE
  5
989
100
AcDbEntity
  8
VHH-050
100
AcDbLine
 10
17.677671
 20
-0.000001
 30
0.0
 11
17.677671
 21
35.355338
 31
0.0
  0
ENDBLK
  5
98B
100
AcDbEntity
  8
0
100
AcDbBlockEnd
  0
BLOCK
  5
98F
100
AcDbEntity
  8
0
100
AcDbBlockBegin
  2
A$C605007EB
 70
     0
 10
0.0
 20
0.0
 30
0.0
  3
A$C605007EB
  1

  0
LINE
  5
98D
100
AcDbEntity
  8
VHH-050
100
AcDbLine
 10
0.000002
 20
25.000002
 30
0.0
 11
25.000002
 21
0.000002
 31
0.0
  0
LINE
  5
98E
100
AcDbEntity
  8
VHH-050
100
AcDbLine
 10
0.000002
 20
0.000002
 30
0.0
 11
25.000002
 21
25.000002
 31
0.0
  0
ENDBLK
  5
990
100
AcDbEntity
  8
0
100
AcDbBlockEnd
  0
BLOCK
  5
994
100
AcDbEntity
  8
0
100
AcDbBlockBegin
  2
A$C32063EEB
 70
     0
 10
0.0
 20
0.0
 30
0.0
  3
A$C32063EEB
  1

  0
CIRCLE
  5
992
100
AcDbEntity
  8
VHH-050
100
AcDbCircle
 10
8.838839
 20
8.838837
 30
0.0
 40
1.838835
  0
CIRCLE
  5
993
100
AcDbEntity
  8
VHH-050
100
AcDbCircle
 10
8.838839
 20
8.838837
 30
0.0
 40
8.838835
  0
ENDBLK
  5
995
100
AcDbEntity
  8
0
100
AcDbBlockEnd
  0
ENDSEC
  0
SECTION
  2
ENTITIES
  0
INSERT
  5
27C
100
AcDbEntity
  8
0
100
AcDbBlockReference
 66
     1
  2
TEK_INFO
 10
0.0
 20
0.0
 30
0.0
  0
ATTRIB
  5
27D
100
AcDbEntity
  8
0
100
AcDbText
 10
15.0
 20
31.5
 30
0.0
 40
2.5
  1
A3
  7
ROMANS
100
AcDbAttribute
  2
FORMAAT
 70
     9
  0
ATTRIB
  5
27E
100
AcDbEntity
  8
0
100
AcDbText
 10
15.0
 20
27.5
 30
0.0
 40
2.5
  1
hor
  7
ROMANS
100
AcDbAttribute
  2
POSITIE
 70
     9
  0
ATTRIB
  5
27F
100
AcDbEntity
  8
0
100
AcDbText
 10
15.0
 20
23.5
 30
0.0
 40
2.5
  1
1
  7
ROMANS
100
AcDbAttribute
  2
AANTAL
 70
     9
  0
ATTRIB
  5
280
100
AcDbEntity
  8
0
100
AcDbText
 10
15.0
 20
19.5
 30
0.0
 40
2.5
  1
1
  7
ROMANS
100
AcDbAttribute
  2
TEKSCHAAL
 70
     9
  0
ATTRIB
  5
281
100
AcDbEntity
  8
0
100
AcDbText
 10
15.0
 20
15.5
 30
0.0
 40
2.5
  1
1
  7
ROMANS
100
AcDbAttribute
  2
SNAPSCHAAL
 70
     9
  0
ATTRIB
  5
282
100
AcDbEntity
  8
0
100
AcDbText
 10
15.0
 20
11.5
 30
0.0
 40
2.5
  1
1
  7
ROMANS
100
AcDbAttribute
  2
BLADAANTAL
 70
     9
  0
SEQEND
  5
283
100
AcDbEntity
  8
0
  0
INSERT
  5
1479
100
AcDbEntity
  8
VHH-050
100
AcDbBlockReference
  2
A$C32063EEB
 10
-8.838839
 20
-8.838837
 30
0.0
  0
LWPOLYLINE
  5
1487
100
AcDbEntity
  8
VHH-025
100
AcDbPolyline
 90
        2
 70
     0
 43
0.0
 10
455.28896
 20
-260.900015
 10
457.493547
 20
-218.833978
  0
LWPOLYLINE
  5
1488
100
AcDbEntity
  8
VHH-025
100
AcDbPolyline
 90
        3
 70
     0
 43
0.0
 10
455.511689
 20
-218.158028
 10
454.181876
 20
-238.717264
 10
452.833313
 20
-260.40696
  0
LWPOLYLINE
  5
1489
100
AcDbEntity
  8
VHH-025
100
AcDbPolyline
 90
        2
 70
     0
 43
0.0
 10
247.287753
 20
-218.833978
 10
249.49234
 20
-260.900015
  0
LWPOLYLINE
  5
148A
100
AcDbEntity
  8
VHH-025
100
AcDbPolyline
 90
        3
 70
     0
 43
0.0
 10
251.947987
 20
-260.40696
 10
250.599424
 20
-238.717264
 10
249.269611
 20
-218.158028
  0
LWPOLYLINE
  5
148B
100
AcDbEntity
  8
VHH-025
100
AcDbPolyline
 90
        2
 70
     0
 43
0.0
 10
225.288961
 20
-260.900015
 10
227.493549
 20
-218.833978
  0
LWPOLYLINE
  5
148C
100
AcDbEntity
  8
VHH-025
100
AcDbPolyline
 90
        3
 70
     0
 43
0.0
 10
225.51169
 20
-218.158028
 10
224.181877
 20
-238.717264
 10
222.833315
 20
-260.40696
  0
LWPOLYLINE
  5
148D
100
AcDbEntity
  8
VHH-025
100
AcDbPolyline
 90
        2
 70
     0
 43
0.0
 10
17.287754
 20
-218.833978
 10
19.492341
 20
-260.900015
  0
LWPOLYLINE
  5
148E
100
AcDbEntity
  8
VHH-025
100
AcDbPolyline
 90
        3
 70
     0
 43
0.0
 10
21.947988
 20
-260.40696
 10
20.599425
 20
-238.717264
 10
19.269612
 20
-218.158028
  0
LINE
  5
148F
100
AcDbEntity
  8
VHH-025
100
AcDbLine
 10
5.391739
 20
-332.0
 30
0.0
 11
5.391739
 21
0.0
 31
0.0
  0
LINE
  5
1490
100
AcDbEntity
  8
VHH-025
100
AcDbLine
 10
7.389564
 20
-332.0
 30
0.0
 11
7.389564
 21
0.0
 31
0.0
  0
LINE
  5
1491
100
AcDbEntity
  8
VHH-025
100
AcDbLine
 10
469.387388
 20
-332.0
 30
0.0
 11
469.387388
 21
0.0
 31
0.0
  0
LINE
  5
1492
100
AcDbEntity
  8
VHH-025
100
AcDbLine
 10
467.389562
 20
-332.0
 30
0.0
 11
467.389562
 21
0.0
 31
0.0
  0
LINE
  5
1493
100
AcDbEntity
  8
VHH-025
100
AcDbLine
 10
237.389563
 20
-332.0
 30
0.0
 11
237.389563
 21
0.0
 31
0.0
  0
LINE
  5
1494
100
AcDbEntity
  8
VHH-025
100
AcDbLine
 10
237.389563
 20
-332.0
 30
0.0
 11
237.389563
 21
0.0
 31
0.0
  0
LWPOLYLINE
  5
1496
100
AcDbEntity
  8
VHH-025
100
AcDbPolyline
 90
        2
 70
     0
 43
0.0
 10
352.39065
 20
-307.276471
 10
345.848858
 20
-307.22157
  0
LWPOLYLINE
  5
1497
100
AcDbEntity
  8
VHH-025
100
AcDbPolyline
 90
        2
 70
     0
 43
0.0
 10
352.39065
 20
-331.272172
 10
345.848858
 20
-331.217272
  0
LWPOLYLINE
  5
1498
100
AcDbEntity
  8
VHH-025
100
AcDbPolyline
 90
       11
 70
   128
 43
0.0
 10
347.817145
 20
-391.286062
 10
346.201615
 20
-391.066506
 10
344.597337
 20
-390.780946
 10
342.995805
 20
-390.427125
 10
341.411169
 20
-390.00752
 10
339.81203
 20
-389.511436
 10
338.236003
 20
-388.948204
 10
336.674548
 20
-388.313824
 10
335.141906
 20
-387.613197
 10
333.381272
 20
-386.706615
 10
331.664045
 20
-385.709295
  0
ARC
  5
1499
100
AcDbEntity
  8
VHH-025
100
AcDbCircle
 10
352.395016
 20
-352.364719
 30
0.0
 40
40.0
100
AcDbArc
 50
237.707655
 51
262.885254
  0
LWPOLYLINE
  5
149A
100
AcDbEntity
  8
VHH-025
100
AcDbPolyline
 90
       13
 70
     0
 43
0.0
 10
384.738566
 20
-357.785829
 10
376.647376
 20
-358.417335
 10
372.610255
 20
-358.664714
 10
370.594124
 20
-358.771407
 10
369.586704
 20
-358.820516
 10
368.57973
 20
-358.866807
 10
352.389295
 20
-359.227552
 10
344.298129
 20
-359.137431
 10
340.249311
 20
-359.024677
 10
338.224396
 20
-358.951346
 10
337.21185
 20
-358.910439
 10
336.199259
 20
-358.866704
 10
320.042734
 20
-357.785829
  0
LWPOLYLINE
  5
149B
100
AcDbEntity
  8
VHH-025
100
AcDbPolyline
 90
        9
 70
     0
 43
0.0
 10
255.789385
 20
-349.704212
 10
279.404941
 20
-355.167567
 10
303.475623
 20
-359.119603
 10
327.855112
 20
-361.510997
 10
352.39065
 20
-362.311523
 10
376.926188
 20
-361.510997
 10
401.305677
 20
-359.119603
 10
425.376359
 20
-355.167567
 10
448.991915
 20
-349.704212
  0
LWPOLYLINE
  5
149C
100
AcDbEntity
  8
VHH-025
100
AcDbPolyline
 90
        9
 70
     0
 43
0.0
 10
342.986871
 20
-427.265796
 10
342.632162
 20
-427.265054
 10
342.737498
 20
-427.266103
 10
343.257399
 20
-427.266255
 10
344.204825
 20
-427.265802
 10
345.607037
 20
-427.265592
 10
347.490048
 20
-427.265745
 10
349.828778
 20
-427.26606
 10
352.395016
 20
-427.265796
  0
LWPOLYLINE
  5
149D
100
AcDbEntity
  8
VHH-025
100
AcDbPolyline
 90
        9
 70
     0
 43
0.0
 10
352.395016
 20
-479.933962
 10
350.064498
 20
-479.832581
 10
347.752026
 20
-479.529399
 10
345.475532
 20
-479.026607
 10
343.252628
 20
-478.328227
 10
340.62311
 20
-477.088044
 10
338.625108
 20
-475.380745
 10
337.780272
 20
-473.4856
 10
338.033824
 20
-471.922459
  0
LWPOLYLINE
  5
149E
100
AcDbEntity
  8
VHH-025
100
AcDbPolyline
 90
       16
 70
   128
 43
0.0
 10
466.197424
 20
-481.149772
 10
461.161115
 20
-482.653538
 10
449.582473
 20
-485.832656
 10
437.911257
 20
-488.652988
 10
422.092878
 20
-491.870912
 10
406.126716
 20
-494.43161
 10
390.054297
 20
-496.331038
 10
373.917155
 20
-497.56516
 10
357.756816
 20
-498.129936
 10
341.614813
 20
-498.021329
 10
324.345978
 20
-497.157628
 10
307.124012
 20
-495.52715
 10
289.99991
 20
-493.134709
 10
272.688546
 20
-489.917198
 10
255.531587
 20
-485.918125
 10
238.581702
 20
-481.149772
  0
ARC
  5
149F
100
AcDbEntity
  8
VHH-025
100
AcDbCircle
 10
352.389563
 20
-109.167005
 30
0.0
 40
400.0
100
AcDbArc
 50
253.39903
 51
286.60097
  0
ARC
  5
14A0
100
AcDbEntity
  8
VHH-025
100
AcDbCircle
 10
352.389563
 20
-109.167005
 30
0.0
 40
378.0
100
AcDbArc
 50
253.240216
 51
286.759784
  0
ARC
  5
14A3
100
AcDbEntity
  8
VHH-025
100
AcDbCircle
 10
352.395016
 20
-436.896289
 30
0.0
 40
16.8718
100
AcDbArc
 50
310.861473
 51
229.138527
  0
ARC
  5
14A4
100
AcDbEntity
  8
VHH-025
100
AcDbCircle
 10
352.395016
 20
-436.896289
 30
0.0
 40
14.916049
100
AcDbArc
 50
320.128096
 51
219.871904
  0
ARC
  5
14A5
100
AcDbEntity
  8
VHH-025
100
AcDbCircle
 10
352.395016
 20
-434.608182
 30
0.0
 40
16.0
100
AcDbArc
 50
90.0
 51
158.746191
  0
LWPOLYLINE
  5
14A6
100
AcDbEntity
  8
VHH-025
100
AcDbPolyline
 90
       14
 70
     0
 43
0.0
 10
338.033824
 20
-471.922459
 10
339.672705
 20
-468.498183
 10
340.674029
 20
-465.590764
 10
341.449829
 20
-462.096069
 10
341.867163
 20
-457.943052
 10
341.79309
 20
-453.060672
 10
340.732898
 20
-444.785448
 10
340.323103
 20
-442.628664
 10
339.952981
 20
-441.006656
 10
339.33512
 20
-439.059619
 10
338.886053
 20
-438.329635
 10
338.612513
 20
-438.202002
 10
338.521228
 20
-438.067848
 10
338.612513
 20
-437.337625
  0
CIRCLE
  5
14A7
100
AcDbEntity
  8
VHH-025
100
AcDbCircle
 10
331.916077
 20
-442.041728
 30
0.0
 40
2.75
  0
CIRCLE
  5
14A8
100
AcDbEntity
  8
VHH-025
100
AcDbCircle
 10
280.971102
 20
-437.908683
 30
0.0
 40
2.75
  0
CIRCLE
  5
14A9
100
AcDbEntity
  8
VHH-025
100
AcDbCircle
 10
313.808024
 20
-437.908683
 30
0.0
 40
2.75
  0
CIRCLE
  5
14AA
100
AcDbEntity
  8
VHH-025
100
AcDbCircle
 10
193.808026
 20
-437.908683
 30
0.0
 40
2.75
  0
LINE
  5
14AB
100
AcDbEntity
  8
VHH-025
100
AcDbLine
 10
237.551011
 20
-331.93891
 30
0.0
 11
237.551011
 21
-453.107827
 31
0.0
  0
LINE
  5
14AC
100
AcDbEntity
  8
VHH-025
100
AcDbLine
 10
243.389562
 20
-332.27926
 30
0.0
 11
243.389562
 21
-471.110372
 31
0.0
  0
LINE
  5
14AD
100
AcDbEntity
  8
VHH-025
100
AcDbLine
 10
237.882704
 20
-478.164668
 30
0.0
 11
237.882704
 21
-332.27061
 31
0.0
  0
LINE
  5
14AE
100
AcDbEntity
  8
VHH-025
100
AcDbLine
 10
237.228116
 20
-453.107827
 30
0.0
 11
237.228116
 21
-331.93891
 31
0.0
  0
LINE
  5
14AF
100
AcDbEntity
  8
VHH-025
100
AcDbLine
 10
231.389565
 20
-471.110372
 30
0.0
 11
231.389565
 21
-332.27926
 31
0.0
  0
LINE
  5
14B0
100
AcDbEntity
  8
VHH-025
100
AcDbLine
 10
236.896416
 20
-332.27061
 30
0.0
 11
236.896416
 21
-478.164668
 31
0.0
  0
ARC
  5
14B1
100
AcDbEntity
  8
VHH-025
100
AcDbCircle
 10
122.395017
 20
-436.896289
 30
0.0
 40
14.916049
100
AcDbArc
 50
320.128096
 51
219.871904
  0
ARC
  5
14B2
100
AcDbEntity
  8
VHH-025
100
AcDbCircle
 10
122.395017
 20
-436.896289
 30
0.0
 40
16.8718
100
AcDbArc
 50
310.861473
 51
229.138527
  0
CIRCLE
  5
14B3
100
AcDbEntity
  8
VHH-025
100
AcDbCircle
 10
160.971103
 20
-437.908683
 30
0.0
 40
2.75
  0
CIRCLE
  5
14B4
100
AcDbEntity
  8
VHH-025
100
AcDbCircle
 10
101.916078
 20
-442.041728
 30
0.0
 40
2.75
  0
LWPOLYLINE
  5
14B5
100
AcDbEntity
  8
VHH-025
100
AcDbPolyline
 90
       14
 70
     0
 43
0.0
 10
108.033825
 20
-471.922459
 10
109.672706
 20
-468.498183
 10
110.67403
 20
-465.590764
 10
111.44983
 20
-462.096069
 10
111.867164
 20
-457.943052
 10
111.793091
 20
-453.060672
 10
110.732899
 20
-444.785448
 10
110.323104
 20
-442.628664
 10
109.952982
 20
-441.006656
 10
109.335122
 20
-439.059619
 10
108.886054
 20
-438.329635
 10
108.612514
 20
-438.202002
 10
108.521229
 20
-438.067848
 10
108.612514
 20
-437.337625
  0
LWPOLYLINE
  5
14B6
100
AcDbEntity
  8
VHH-025
100
AcDbPolyline
 90
       14
 70
     0
 43
0.0
 10
136.756209
 20
-471.922459
 10
135.117327
 20
-468.498183
 10
134.116003
 20
-465.590764
 10
133.340204
 20
-462.096069
 10
132.92287
 20
-457.943052
 10
132.996942
 20
-453.060672
 10
134.057135
 20
-444.785448
 10
134.466929
 20
-442.628664
 10
134.837052
 20
-441.006656
 10
135.454912
 20
-439.059619
 10
135.90398
 20
-438.329635
 10
136.17752
 20
-438.202002
 10
136.268805
 20
-438.067848
 10
136.17752
 20
-437.337625
  0
CIRCLE
  5
14B7
100
AcDbEntity
  8
VHH-025
100
AcDbCircle
 10
142.863051
 20
-442.041728
 30
0.0
 40
2.75
  0
CIRCLE
  5
14B8
100
AcDbEntity
  8
VHH-025
100
AcDbCircle
 10
50.971103
 20
-437.908683
 30
0.0
 40
2.75
  0
CIRCLE
  5
14B9
100
AcDbEntity
  8
VHH-025
100
AcDbCircle
 10
83.808026
 20
-437.908683
 30
0.0
 40
2.75
  0
LINE
  5
14BA
100
AcDbEntity
  8
VHH-025
100
AcDbLine
 10
7.551013
 20
-331.93891
 30
0.0
 11
7.551013
 21
-453.107827
 31
0.0
  0
LINE
  5
14BB
100
AcDbEntity
  8
VHH-025
100
AcDbLine
 10
13.389563
 20
-332.27926
 30
0.0
 11
13.389563
 21
-471.110372
 31
0.0
  0
LINE
  5
14BC
100
AcDbEntity
  8
VHH-025
100
AcDbLine
 10
7.882705
 20
-478.164668
 30
0.0
 11
7.882705
 21
-332.27061
 31
0.0
  0
LWPOLYLINE
  5
14BD
100
AcDbEntity
  8
VHH-025
100
AcDbPolyline
 90
       16
 70
   128
 43
0.0
 10
236.197425
 20
-481.149772
 10
231.161116
 20
-482.653538
 10
219.582474
 20
-485.832656
 10
207.911259
 20
-488.652988
 10
192.092879
 20
-491.870912
 10
176.126717
 20
-494.43161
 10
160.054298
 20
-496.331038
 10
143.917156
 20
-497.56516
 10
127.756817
 20
-498.129936
 10
111.614814
 20
-498.021329
 10
94.345979
 20
-497.157628
 10
77.124013
 20
-495.52715
 10
59.999911
 20
-493.134709
 10
42.688547
 20
-489.917198
 10
25.531588
 20
-485.918125
 10
8.581704
 20
-481.149772
  0
ARC
  5
14BE
100
AcDbEntity
  8
VHH-025
100
AcDbCircle
 10
122.389564
 20
-109.167005
 30
0.0
 40
400.0
100
AcDbArc
 50
253.39903
 51
286.60097
  0
ARC
  5
14BF
100
AcDbEntity
  8
VHH-025
100
AcDbCircle
 10
122.389564
 20
-109.167005
 30
0.0
 40
378.0
100
AcDbArc
 50
253.240216
 51
286.759784
  0
CIRCLE
  5
14EE
100
AcDbEntity
  8
VHH-025
100
AcDbCircle
 10
67.389564
 20
-445.815397
 30
0.0
 40
2.75
  0
LWPOLYLINE
  5
14EF
100
AcDbEntity
  8
VHH-025
100
AcDbPolyline
 90
        8
 70
   128
 43
0.0
 10
7.523363
 20
-457.020417
 10
7.529823
 20
-456.785938
 10
7.535769
 20
-456.412783
 10
7.540969
 20
-455.915019
 10
7.545238
 20
-455.311416
 10
7.548405
 20
-454.62473
 10
7.550349
 20
-453.880851
 10
7.551013
 20
-453.107827
  0
LWPOLYLINE
  5
14F0
100
AcDbEntity
  8
VHH-025
100
AcDbPolyline
 90
        9
 70
   128
 43
0.0
 10
7.868668
 20
-480.211983
 10
7.881677
 20
-480.367789
 10
7.919824
 20
-480.519628
 10
7.982133
 20
-480.663633
 10
8.067017
 20
-480.796138
 10
8.172316
 20
-480.913764
 10
8.295348
 20
-481.013516
 10
8.432975
 20
-481.092861
 10
8.581704
 20
-481.149772
  0
LWPOLYLINE
  5
14F1
100
AcDbEntity
  8
VHH-025
100
AcDbPolyline
 90
        6
 70
   128
 43
0.0
 10
7.868668
 20
-480.211983
 10
7.874018
 20
-479.97124
 10
7.878376
 20
-479.542805
 10
7.881386
 20
-478.962185
 10
7.882683
 20
-478.273178
 10
7.882705
 20
-478.164668
  0
LWPOLYLINE
  5
14F2
100
AcDbEntity
  8
VHH-025
100
AcDbPolyline
 90
        5
 70
   128
 43
0.0
 10
8.107727
 20
-492.494101
 10
7.808452
 20
-492.345939
 10
7.574869
 20
-492.107513
 10
7.429665
 20
-491.80195
 10
7.389566
 20
-491.515795
  0
LINE
  5
14F3
100
AcDbEntity
  8
VHH-025
100
AcDbLine
 10
7.389566
 20
-460.279258
 30
0.0
 11
7.389566
 21
-491.515795
 31
0.0
  0
LINE
  5
14F4
100
AcDbEntity
  8
VHH-025
100
AcDbLine
 10
7.389566
 20
-491.515795
 30
0.0
 11
7.868668
 21
-480.211983
 31
0.0
  0
LINE
  5
14F5
100
AcDbEntity
  8
VHH-025
100
AcDbLine
 10
7.523363
 20
-457.020417
 30
0.0
 11
7.389566
 21
-460.279258
 31
0.0
  0
CIRCLE
  5
14F6
100
AcDbEntity
  8
VHH-025
100
AcDbCircle
 10
152.912262
 20
-444.335395
 30
0.0
 40
2.75
  0
CIRCLE
  5
14F7
100
AcDbEntity
  8
VHH-025
100
AcDbCircle
 10
91.866867
 20
-444.335395
 30
0.0
 40
2.75
  0
CIRCLE
  5
14F8
100
AcDbEntity
  8
VHH-025
100
AcDbCircle
 10
100.336277
 20
-454.955699
 30
0.0
 40
2.75
  0
LWPOLYLINE
  5
14F9
100
AcDbEntity
  8
VHH-025
100
AcDbPolyline
 90
        9
 70
     0
 43
0.0
 10
122.395017
 20
-479.933962
 10
124.725535
 20
-479.832581
 10
127.038006
 20
-479.529399
 10
129.3145
 20
-479.026607
 10
131.537405
 20
-478.328227
 10
134.166923
 20
-477.088044
 10
136.164925
 20
-475.380745
 10
137.009761
 20
-473.4856
 10
136.756209
 20
-471.922459
  0
LWPOLYLINE
  5
14FA
100
AcDbEntity
  8
VHH-025
100
AcDbPolyline
 90
        9
 70
     0
 43
0.0
 10
122.395017
 20
-479.933962
 10
120.064499
 20
-479.832581
 10
117.752027
 20
-479.529399
 10
115.475534
 20
-479.026607
 10
113.252629
 20
-478.328227
 10
110.623111
 20
-477.088044
 10
108.625109
 20
-475.380745
 10
107.780273
 20
-473.4856
 10
108.033825
 20
-471.922459
  0
CIRCLE
  5
14FB
100
AcDbEntity
  8
VHH-025
100
AcDbCircle
 10
144.442852
 20
-454.955699
 30
0.0
 40
2.75
  0
ARC
  5
14FC
100
AcDbEntity
  8
VHH-025
100
AcDbCircle
 10
113.278006
 20
-456.289135
 30
0.0
 40
2.75
100
AcDbArc
 50
122.342265
 51
237.496876
  0
ARC
  5
14FD
100
AcDbEntity
  8
VHH-025
100
AcDbCircle
 10
131.501123
 20
-456.289135
 30
0.0
 40
2.75
100
AcDbArc
 50
302.756594
 51
57.390996
  0
LWPOLYLINE
  5
1517
100
AcDbEntity
  8
VHH-025
100
AcDbPolyline
 90
        8
 70
   128
 43
0.0
 10
237.228116
 20
-453.107827
 10
237.228772
 20
-453.880851
 10
237.230724
 20
-454.62473
 10
237.23389
 20
-455.311416
 10
237.238159
 20
-455.915019
 10
237.24336
 20
-456.412783
 10
237.249305
 20
-456.785938
 10
237.255765
 20
-457.020417
  0
LWPOLYLINE
  5
1518
100
AcDbEntity
  8
VHH-025
100
AcDbPolyline
 90
        8
 70
   128
 43
0.0
 10
237.523362
 20
-457.020417
 10
237.529822
 20
-456.785938
 10
237.535768
 20
-456.412783
 10
237.540968
 20
-455.915019
 10
237.545237
 20
-455.311416
 10
237.548404
 20
-454.62473
 10
237.550348
 20
-453.880851
 10
237.551011
 20
-453.107827
  0
LWPOLYLINE
  5
1519
100
AcDbEntity
  8
VHH-025
100
AcDbPolyline
 90
        9
 70
   128
 43
0.0
 10
236.910461
 20
-480.211983
 10
236.897452
 20
-480.367789
 10
236.859305
 20
-480.519628
 10
236.796996
 20
-480.663633
 10
236.712111
 20
-480.796138
 10
236.606812
 20
-480.913764
 10
236.483781
 20
-481.013516
 10
236.346146
 20
-481.092861
 10
236.197425
 20
-481.149772
  0
LWPOLYLINE
  5
151A
100
AcDbEntity
  8
VHH-025
100
AcDbPolyline
 90
        5
 70
   128
 43
0.0
 10
236.896416
 20
-478.164668
 10
236.897474
 20
-478.880635
 10
236.900559
 20
-479.515745
 10
236.90523
 20
-479.979715
 10
236.910461
 20
-480.211983
  0
LWPOLYLINE
  5
151B
100
AcDbEntity
  8
VHH-025
100
AcDbPolyline
 90
        5
 70
   128
 43
0.0
 10
237.389563
 20
-491.515795
 10
237.331433
 20
-491.858723
 10
237.162648
 20
-492.162997
 10
236.904217
 20
-492.390307
 10
236.671401
 20
-492.494101
  0
LWPOLYLINE
  5
151C
100
AcDbEntity
  8
VHH-025
100
AcDbPolyline
 90
        9
 70
   128
 43
0.0
 10
237.868667
 20
-480.211983
 10
237.881676
 20
-480.367789
 10
237.919823
 20
-480.519628
 10
237.982132
 20
-480.663633
 10
238.067016
 20
-480.796138
 10
238.172315
 20
-480.913764
 10
238.295347
 20
-481.013516
 10
238.432974
 20
-481.092861
 10
238.581702
 20
-481.149772
  0
LWPOLYLINE
  5
151D
100
AcDbEntity
  8
VHH-025
100
AcDbPolyline
 90
        6
 70
   128
 43
0.0
 10
237.868667
 20
-480.211983
 10
237.874016
 20
-479.97124
 10
237.878375
 20
-479.542805
 10
237.881385
 20
-478.962185
 10
237.882681
 20
-478.273178
 10
237.882704
 20
-478.164668
  0
LWPOLYLINE
  5
151E
100
AcDbEntity
  8
VHH-025
100
AcDbPolyline
 90
        5
 70
   128
 43
0.0
 10
238.107726
 20
-492.494101
 10
237.808451
 20
-492.345939
 10
237.574868
 20
-492.107513
 10
237.429664
 20
-491.80195
 10
237.389565
 20
-491.515795
  0
LINE
  5
151F
100
AcDbEntity
  8
VHH-025
100
AcDbLine
 10
237.389565
 20
-460.279258
 30
0.0
 11
237.389565
 21
-491.515795
 31
0.0
  0
LINE
  5
1520
100
AcDbEntity
  8
VHH-025
100
AcDbLine
 10
237.389563
 20
-460.279258
 30
0.0
 11
237.389563
 21
-491.515795
 31
0.0
  0
LINE
  5
1521
100
AcDbEntity
  8
VHH-025
100
AcDbLine
 10
237.389565
 20
-491.515795
 30
0.0
 11
237.868667
 21
-480.211983
 31
0.0
  0
LINE
  5
1522
100
AcDbEntity
  8
VHH-025
100
AcDbLine
 10
236.910461
 20
-480.211983
 30
0.0
 11
237.389563
 21
-491.515795
 31
0.0
  0
LINE
  5
1523
100
AcDbEntity
  8
VHH-025
100
AcDbLine
 10
237.523362
 20
-457.020417
 30
0.0
 11
237.389565
 21
-460.279258
 31
0.0
  0
LINE
  5
1524
100
AcDbEntity
  8
VHH-025
100
AcDbLine
 10
237.389563
 20
-460.279258
 30
0.0
 11
237.255765
 21
-457.020417
 31
0.0
  0
CIRCLE
  5
1525
100
AcDbEntity
  8
VHH-025
100
AcDbCircle
 10
177.389564
 20
-445.815397
 30
0.0
 40
2.75
  0
CIRCLE
  5
1526
100
AcDbEntity
  8
VHH-025
100
AcDbCircle
 10
330.336276
 20
-454.955699
 30
0.0
 40
2.75
  0
ARC
  5
1527
100
AcDbEntity
  8
VHH-025
100
AcDbCircle
 10
343.278005
 20
-456.289135
 30
0.0
 40
2.75
100
AcDbArc
 50
122.342265
 51
237.496876
  0
CIRCLE
  5
1528
100
AcDbEntity
  8
VHH-025
100
AcDbCircle
 10
297.389563
 20
-445.815397
 30
0.0
 40
2.75
  0
CIRCLE
  5
1529
100
AcDbEntity
  8
VHH-025
100
AcDbCircle
 10
321.866866
 20
-444.335395
 30
0.0
 40
2.75
  0
CIRCLE
  5
152A
100
AcDbEntity
  8
VHH-025
100
AcDbCircle
 10
171.966018
 20
-436.077508
 30
0.0
 40
2.75
  0
LWPOLYLINE
  5
152B
100
AcDbEntity
  8
VHH-025
100
AcDbPolyline
 90
        7
 70
     0
 43
0.0
 10
216.242877
 20
-323.494167
 10
202.771038
 20
-325.726136
 10
189.234055
 20
-327.590127
 10
175.632535
 20
-329.099371
 10
168.807694
 20
-329.724161
 10
165.389429
 20
-330.004519
 10
162.390651
 20
-330.232757
  0
CIRCLE
  5
152C
100
AcDbEntity
  8
VHH-025
100
AcDbCircle
 10
168.278006
 20
-405.895051
 30
0.0
 40
2.75
  0
LWPOLYLINE
  5
152D
100
AcDbEntity
  8
VHH-025
100
AcDbPolyline
 90
        9
 70
     0
 43
0.0
 10
25.789386
 20
-349.704212
 10
49.404942
 20
-355.167567
 10
73.475624
 20
-359.119603
 10
97.855113
 20
-361.510997
 10
122.390651
 20
-362.311523
 10
146.926189
 20
-361.510997
 10
171.305678
 20
-359.119603
 10
195.376361
 20
-355.167567
 10
218.991916
 20
-349.704212
  0
LWPOLYLINE
  5
152E
100
AcDbEntity
  8
VHH-025
100
AcDbPolyline
 90
        5
 70
     0
 43
0.0
 10
145.846081
 20
-378.259114
 10
146.926189
 20
-378.223874
 10
171.305678
 20
-375.83248
 10
195.376361
 20
-371.880444
 10
217.834775
 20
-366.653027
  0
LWPOLYLINE
  5
152F
100
AcDbEntity
  8
VHH-025
100
AcDbPolyline
 90
        4
 70
     0
 43
0.0
 10
162.390651
 20
-330.232757
 10
162.390651
 20
-330.85648
 10
162.390651
 20
-331.436364
 10
162.390651
 20
-332.247411
  0
LWPOLYLINE
  5
1530
100
AcDbEntity
  8
VHH-025
100
AcDbPolyline
 90
        2
 70
     0
 43
0.0
 10
115.848859
 20
-331.217272
 10
88.776691
 20
-330.152889
  0
LWPOLYLINE
  5
1531
100
AcDbEntity
  8
VHH-025
100
AcDbPolyline
 90
        2
 70
     0
 43
0.0
 10
128.932443
 20
-331.217272
 10
156.004611
 20
-330.152889
  0
LWPOLYLINE
  5
1532
100
AcDbEntity
  8
VHH-025
100
AcDbPolyline
 90
        4
 70
     0
 43
0.0
 10
82.390651
 20
-332.247411
 10
82.390651
 20
-331.917643
 10
82.390651
 20
-331.439353
 10
82.390651
 20
-330.232757
  0
LWPOLYLINE
  5
1533
100
AcDbEntity
  8
VHH-025
100
AcDbPolyline
 90
       22
 70
     0
 43
0.0
 10
28.320912
 20
-325.438479
 10
28.070092
 20
-329.311101
 10
27.93715
 20
-331.122235
 10
27.868815
 20
-331.997309
 10
27.834185
 20
-332.427339
 10
27.816754
 20
-332.640492
 10
27.80801
 20
-332.746605
 10
27.80363
 20
-332.799545
 10
27.799246
 20
-332.852409
 10
27.652185
 20
-334.551211
 10
27.576956
 20
-335.367613
 10
27.53892
 20
-335.767709
 10
27.519795
 20
-335.965708
 10
27.510206
 20
-336.064189
 10
27.500599
 20
-336.162332
 10
27.345447
 20
-337.699691
 10
27.264936
 20
-338.468856
 10
27.223951
 20
-338.853427
 10
27.203276
 20
-339.045676
 10
27.182481
 20
-339.237889
 10
26.503232
 20
-344.897491
 10
25.789386
 20
-349.704212
  0
LWPOLYLINE
  5
1534
100
AcDbEntity
  8
VHH-025
100
AcDbPolyline
 90
        3
 70
     0
 43
0.0
 10
17.851032
 20
-288.996634
 10
19.298985
 20
-310.20501
 10
22.096172
 20
-345.242635
  0
LWPOLYLINE
  5
1535
100
AcDbEntity
  8
VHH-025
100
AcDbPolyline
 90
       11
 70
     0
 43
0.0
 10
90.042735
 20
-357.785829
 10
88.537083
 20
-357.612295
 10
87.806633
 20
-357.498602
 10
87.09374
 20
-357.36717
 10
85.775194
 20
-357.06159
 10
84.616304
 20
-356.703832
 10
83.673096
 20
-356.311596
 10
83.287554
 20
-356.104501
 10
82.969281
 20
-355.895189
 10
82.537758
 20
-355.47399
 10
82.390651
 20
-355.058505
  0
LWPOLYLINE
  5
1536
100
AcDbEntity
  8
VHH-025
100
AcDbPolyline
 90
        5
 70
     0
 43
0.0
 10
26.946527
 20
-366.653027
 10
49.404942
 20
-371.880444
 10
73.475624
 20
-375.83248
 10
97.855113
 20
-378.223874
 10
98.944
 20
-378.259401
  0
LWPOLYLINE
  5
1537
100
AcDbEntity
  8
VHH-025
100
AcDbPolyline
 90
        5
 70
     0
 43
0.0
 10
82.390651
 20
-355.058505
 10
82.390651
 20
-350.166299
 10
82.390651
 20
-344.743329
 10
82.390651
 20
-338.773094
 10
82.390651
 20
-332.247411
  0
LWPOLYLINE
  5
1538
100
AcDbEntity
  8
VHH-025
100
AcDbPolyline
 90
       15
 70
     0
 43
0.0
 10
64.496082
 20
-341.617936
 10
64.931905
 20
-341.687478
 10
65.351075
 20
-341.782319
 10
66.072511
 20
-342.031396
 10
66.349137
 20
-342.176727
 10
66.553619
 20
-342.327961
 10
66.679669
 20
-342.480577
 10
66.721193
 20
-342.627072
 10
66.677148
 20
-342.763369
 10
66.549289
 20
-342.883097
 10
66.342564
 20
-342.982012
 10
66.064022
 20
-343.056478
 10
65.726779
 20
-343.10312
 10
65.340073
 20
-343.120619
 10
64.484807
 20
-343.065665
  0
LWPOLYLINE
  5
1539
100
AcDbEntity
  8
VHH-025
100
AcDbPolyline
 90
       13
 70
     0
 43
0.0
 10
64.493757
 20
-341.861842
 10
64.783532
 20
-341.908136
 10
65.062832
 20
-341.971356
 10
65.3188
 20
-342.048548
 10
65.544327
 20
-342.13761
 10
65.8653
 20
-342.335395
 10
65.977133
 20
-342.534687
 10
65.947792
 20
-342.625562
 10
65.862813
 20
-342.705146
 10
65.724575
 20
-342.771249
 10
65.539423
 20
-342.820708
 10
65.056167
 20
-342.863534
 10
64.486238
 20
-342.82701
  0
LWPOLYLINE
  5
153A
100
AcDbEntity
  8
VHH-025
100
AcDbPolyline
 90
        2
 70
     0
 43
0.0
 10
61.563431
 20
-338.240329
 10
66.621711
 20
-338.876096
  0
LWPOLYLINE
  5
153B
100
AcDbEntity
  8
VHH-025
100
AcDbPolyline
 90
        4
 70
     0
 43
0.0
 10
61.132046
 20
-348.697835
 10
61.093734
 20
-343.626757
 10
61.106167
 20
-340.905496
 10
61.142285
 20
-338.046001
  0
LWPOLYLINE
  5
153C
100
AcDbEntity
  8
VHH-025
100
AcDbPolyline
 90
        4
 70
     0
 43
0.0
 10
61.563431
 20
-338.240329
 10
61.522758
 20
-341.27995
 10
61.508595
 20
-344.164923
 10
61.551139
 20
-349.518228
  0
LWPOLYLINE
  5
153D
100
AcDbEntity
  8
VHH-025
100
AcDbPolyline
 90
       16
 70
     0
 43
0.0
 10
64.484807
 20
-343.065665
 10
64.050237
 20
-342.995614
 10
63.631386
 20
-342.900155
 10
63.247525
 20
-342.783823
 10
62.909302
 20
-342.649847
 10
62.633378
 20
-342.504812
 10
62.427868
 20
-342.353095
 10
62.259985
 20
-342.054973
 10
62.303896
 20
-341.91927
 10
62.431264
 20
-341.800518
 10
62.638538
 20
-341.701913
 10
62.91621
 20
-341.628109
 10
63.254475
 20
-341.581513
 10
63.641082
 20
-341.563959
 10
64.058343
 20
-341.576132
 10
64.496082
 20
-341.617936
  0
LWPOLYLINE
  5
153E
100
AcDbEntity
  8
VHH-025
100
AcDbPolyline
 90
       13
 70
     0
 43
0.0
 10
64.486238
 20
-342.82701
 10
64.196512
 20
-342.780392
 10
63.917265
 20
-342.716837
 10
63.661345
 20
-342.639354
 10
63.435854
 20
-342.550086
 10
63.114896
 20
-342.352256
 10
63.002993
 20
-342.153394
 10
63.03228
 20
-342.062843
 10
63.117206
 20
-341.98359
 10
63.255399
 20
-341.917781
 10
63.440522
 20
-341.868528
 10
63.923771
 20
-341.825751
 10
64.493757
 20
-341.861842
  0
LWPOLYLINE
  5
153F
100
AcDbEntity
  8
VHH-025
100
AcDbPolyline
 90
        2
 70
     0
 43
0.0
 10
64.852862
 20
-346.128489
 10
64.860134
 20
-347.467319
  0
LWPOLYLINE
  5
1540
100
AcDbEntity
  8
VHH-025
100
AcDbPolyline
 90
        4
 70
     0
 43
0.0
 10
64.860134
 20
-347.467319
 10
64.560371
 20
-347.427281
 10
64.338832
 20
-347.397553
 10
64.11731
 20
-347.36771
  0
LWPOLYLINE
  5
1541
100
AcDbEntity
  8
VHH-025
100
AcDbPolyline
 90
        2
 70
     0
 43
0.0
 10
64.11731
 20
-347.36771
 10
64.109856
 20
-346.029954
  0
LWPOLYLINE
  5
1542
100
AcDbEntity
  8
VHH-025
100
AcDbPolyline
 90
        4
 70
     0
 43
0.0
 10
64.109856
 20
-346.029954
 10
64.409071
 20
-346.069792
 10
64.630958
 20
-346.099198
 10
64.852862
 20
-346.128489
  0
LWPOLYLINE
  5
1543
100
AcDbEntity
  8
VHH-025
100
AcDbPolyline
 90
        2
 70
     0
 43
0.0
 10
61.132046
 20
-348.697835
 10
61.130536
 20
-348.716204
  0
LWPOLYLINE
  5
1544
100
AcDbEntity
  8
VHH-025
100
AcDbPolyline
 90
        2
 70
     0
 43
0.0
 10
61.106784
 20
-337.939924
 10
61.142285
 20
-338.046001
  0
LWPOLYLINE
  5
1545
100
AcDbEntity
  8
VHH-025
100
AcDbPolyline
 90
        2
 70
     0
 43
0.0
 10
61.603462
 20
-338.005269
 10
61.563431
 20
-338.240329
  0
LWPOLYLINE
  5
1546
100
AcDbEntity
  8
VHH-025
100
AcDbPolyline
 90
        3
 70
     0
 43
0.0
 10
68.303802
 20
-339.418526
 10
68.248147
 20
-345.040784
 10
68.279755
 20
-350.151434
  0
LWPOLYLINE
  5
1547
100
AcDbEntity
  8
VHH-025
100
AcDbPolyline
 90
        3
 70
     0
 43
0.0
 10
67.608567
 20
-339.336903
 10
67.553555
 20
-344.955384
 10
67.58577
 20
-350.062475
  0
LWPOLYLINE
  5
1548
100
AcDbEntity
  8
VHH-025
100
AcDbPolyline
 90
        2
 70
     0
 43
0.0
 10
68.279755
 20
-350.151434
 10
68.277574
 20
-350.177698
  0
LWPOLYLINE
  5
1549
100
AcDbEntity
  8
VHH-025
100
AcDbPolyline
 90
        2
 70
     0
 43
0.0
 10
67.58577
 20
-350.062475
 10
67.584491
 20
-350.077904
  0
LWPOLYLINE
  5
154A
100
AcDbEntity
  8
VHH-025
100
AcDbPolyline
 90
        6
 70
     0
 43
0.0
 10
66.602466
 20
-350.409728
 10
67.08694
 20
-350.470247
 10
67.389663
 20
-350.48035
 10
67.664318
 20
-350.465255
 10
68.0822
 20
-350.362793
 10
68.277574
 20
-350.177698
  0
LWPOLYLINE
  5
154B
100
AcDbEntity
  8
VHH-025
100
AcDbPolyline
 90
        7
 70
     0
 43
0.0
 10
66.626119
 20
-338.635308
 10
66.954882
 20
-338.685865
 10
67.271549
 20
-338.756974
 10
67.5613
 20
-338.845222
 10
67.816347
 20
-338.948249
 10
68.17871
 20
-339.180233
 10
68.303802
 20
-339.418526
  0
LWPOLYLINE
  5
154C
100
AcDbEntity
  8
VHH-025
100
AcDbPolyline
 90
        4
 70
     0
 43
0.0
 10
66.621711
 20
-338.876096
 10
67.001116
 20
-338.947681
 10
67.32173
 20
-339.060278
 10
67.608567
 20
-339.336903
  0
LINE
  5
154D
100
AcDbEntity
  8
VHH-025
100
AcDbLine
 10
5.391739
 20
-332.0
 30
0.0
 11
21.038962
 21
-332.0
 31
0.0
  0
LWPOLYLINE
  5
154E
100
AcDbEntity
  8
VHH-025
100
AcDbPolyline
 90
        2
 70
     0
 43
0.0
 10
23.253313
 20
-362.191451
 10
22.102728
 20
-345.242635
  0
LWPOLYLINE
  5
154F
100
AcDbEntity
  8
VHH-025
100
AcDbPolyline
 90
        8
 70
     0
 43
0.0
 10
26.946527
 20
-366.653027
 10
25.543978
 20
-366.03232
 10
24.930255
 20
-365.564651
 10
24.398536
 20
-365.010884
 10
23.954735
 20
-364.378595
 10
23.613748
 20
-363.691312
 10
23.377389
 20
-362.954734
 10
23.253313
 20
-362.191451
  0
LWPOLYLINE
  5
1550
100
AcDbEntity
  8
VHH-025
100
AcDbPolyline
 90
        8
 70
     0
 43
0.0
 10
22.096172
 20
-345.242635
 10
22.453429
 20
-346.734651
 10
22.795852
 20
-347.426843
 10
23.235564
 20
-348.054969
 10
23.770178
 20
-348.613212
 10
24.37948
 20
-349.078747
 10
25.058849
 20
-349.446813
 10
25.789386
 20
-349.704212
  0
LWPOLYLINE
  5
1551
100
AcDbEntity
  8
VHH-025
100
AcDbPolyline
 90
        4
 70
     0
 43
0.0
 10
42.634252
 20
-346.077599
 10
42.575128
 20
-341.129313
 10
42.575808
 20
-338.476935
 10
42.601195
 20
-335.679996
  0
LWPOLYLINE
  5
1552
100
AcDbEntity
  8
VHH-025
100
AcDbPolyline
 90
        4
 70
     0
 43
0.0
 10
43.172377
 20
-335.352316
 10
43.14741
 20
-338.094795
 10
43.146375
 20
-340.74926
 10
43.204876
 20
-345.701225
  0
LWPOLYLINE
  5
1553
100
AcDbEntity
  8
VHH-025
100
AcDbPolyline
 90
        7
 70
     0
 43
0.0
 10
44.312675
 20
-346.856472
 10
43.987188
 20
-346.786552
 10
43.672957
 20
-346.701104
 10
43.38468
 20
-346.604247
 10
43.13009
 20
-346.498625
 10
42.765476
 20
-346.279907
 10
42.634252
 20
-346.077599
  0
LWPOLYLINE
  5
1554
100
AcDbEntity
  8
VHH-025
100
AcDbPolyline
 90
        5
 70
     0
 43
0.0
 10
44.389686
 20
-346.250771
 10
43.938404
 20
-346.141307
 10
43.554992
 20
-345.998462
 10
43.297519
 20
-345.844094
 10
43.204876
 20
-345.701225
  0
LWPOLYLINE
  5
1555
100
AcDbEntity
  8
VHH-025
100
AcDbPolyline
 90
        7
 70
     0
 43
0.0
 10
42.601195
 20
-335.679996
 10
42.634756
 20
-335.575166
 10
42.731585
 20
-335.48509
 10
42.88684
 20
-335.413898
 10
43.096335
 20
-335.36347
 10
43.639948
 20
-335.333098
 10
44.28235
 20
-335.399003
  0
LWPOLYLINE
  5
1556
100
AcDbEntity
  8
VHH-025
100
AcDbPolyline
 90
        2
 70
     0
 43
0.0
 10
44.389686
 20
-346.250771
 10
59.951754
 20
-348.858566
  0
LINE
  5
1557
100
AcDbEntity
  8
VHH-025
100
AcDbLine
 10
42.61088
 20
-335.623127
 30
0.0
 11
42.601195
 21
-335.679996
 31
0.0
  0
LWPOLYLINE
  5
1558
100
AcDbEntity
  8
VHH-025
100
AcDbPolyline
 90
        2
 70
     0
 43
0.0
 10
66.602466
 20
-350.409728
 10
44.312675
 20
-346.856472
  0
LWPOLYLINE
  5
1559
100
AcDbEntity
  8
VHH-025
100
AcDbPolyline
 90
        2
 70
     0
 43
0.0
 10
44.28235
 20
-335.399003
 10
66.626119
 20
-338.635308
  0
CIRCLE
  5
155A
100
AcDbEntity
  8
VHH-025
100
AcDbCircle
 10
67.389564
 20
-424.815397
 30
0.0
 40
6.25
  0
CIRCLE
  5
155B
100
AcDbEntity
  8
VHH-025
100
AcDbCircle
 10
72.813111
 20
-436.077508
 30
0.0
 40
2.75
  0
CIRCLE
  5
155C
100
AcDbEntity
  8
VHH-025
100
AcDbCircle
 10
79.576163
 20
-427.596909
 30
0.0
 40
2.75
  0
CIRCLE
  5
155D
100
AcDbEntity
  8
VHH-025
100
AcDbCircle
 10
55.202966
 20
-427.596909
 30
0.0
 40
2.75
  0
CIRCLE
  5
155E
100
AcDbEntity
  8
VHH-025
100
AcDbCircle
 10
61.966018
 20
-436.077508
 30
0.0
 40
2.75
  0
CIRCLE
  5
155F
100
AcDbEntity
  8
VHH-025
100
AcDbCircle
 10
67.389564
 20
-412.315397
 30
0.0
 40
2.75
  0
CIRCLE
  5
1560
100
AcDbEntity
  8
VHH-025
100
AcDbCircle
 10
77.162458
 20
-417.021775
 30
0.0
 40
2.75
  0
CIRCLE
  5
1561
100
AcDbEntity
  8
VHH-025
100
AcDbCircle
 10
46.916078
 20
-420.142458
 30
0.0
 40
2.75
  0
CIRCLE
  5
1562
100
AcDbEntity
  8
VHH-025
100
AcDbCircle
 10
57.616671
 20
-417.021775
 30
0.0
 40
2.75
  0
CIRCLE
  5
1563
100
AcDbEntity
  8
VHH-025
100
AcDbCircle
 10
76.501123
 20
-405.895051
 30
0.0
 40
2.75
  0
CIRCLE
  5
1564
100
AcDbEntity
  8
VHH-025
100
AcDbCircle
 10
58.278006
 20
-405.895051
 30
0.0
 40
2.75
  0
LWPOLYLINE
  5
1565
100
AcDbEntity
  8
VHH-025
100
AcDbPolyline
 90
        5
 70
     0
 43
0.0
 10
162.390651
 20
-332.247411
 10
162.390651
 20
-338.773612
 10
162.390651
 20
-344.743865
 10
162.390651
 20
-350.166704
 10
162.390651
 20
-355.058505
  0
LWPOLYLINE
  5
1566
100
AcDbEntity
  8
VHH-025
100
AcDbPolyline
 90
       11
 70
     0
 43
0.0
 10
162.390651
 20
-355.058505
 10
162.245755
 20
-355.470794
 10
162.06601
 20
-355.681073
 10
161.814473
 20
-355.893376
 10
161.116239
 20
-356.307649
 10
160.168826
 20
-356.702464
 10
159.018032
 20
-357.058395
 10
158.37158
 20
-357.219786
 10
157.693639
 20
-357.365956
 10
156.255139
 20
-357.610743
 10
154.738567
 20
-357.785829
  0
LWPOLYLINE
  5
1567
100
AcDbEntity
  8
VHH-025
100
AcDbPolyline
 90
        3
 70
     0
 43
0.0
 10
98.944
 20
-378.259401
 10
122.390651
 20
-379.024399
 10
145.846081
 20
-378.259114
  0
LWPOLYLINE
  5
1568
100
AcDbEntity
  8
VHH-025
100
AcDbPolyline
 90
        2
 70
     0
 43
0.0
 10
122.390651
 20
-331.272172
 10
128.932443
 20
-331.217272
  0
LWPOLYLINE
  5
1569
100
AcDbEntity
  8
VHH-025
100
AcDbPolyline
 90
        2
 70
     0
 43
0.0
 10
122.390651
 20
-331.272172
 10
115.848859
 20
-331.217272
  0
LWPOLYLINE
  5
156A
100
AcDbEntity
  8
VHH-025
100
AcDbPolyline
 90
       13
 70
     0
 43
0.0
 10
154.738567
 20
-357.785829
 10
146.647378
 20
-358.417335
 10
142.610256
 20
-358.664714
 10
140.594125
 20
-358.771407
 10
139.586706
 20
-358.820516
 10
138.579731
 20
-358.866807
 10
122.389296
 20
-359.227552
 10
114.29813
 20
-359.137431
 10
110.249312
 20
-359.024677
 10
108.224397
 20
-358.951346
 10
107.211851
 20
-358.910439
 10
106.199261
 20
-358.866704
 10
90.042735
 20
-357.785829
  0
ARC
  5
156B
100
AcDbEntity
  8
VHH-025
100
AcDbCircle
 10
138.808026
 20
-424.275503
 30
0.0
 40
2.75
100
AcDbArc
 50
262.476558
 51
83.523442
  0
ARC
  5
156C
100
AcDbEntity
  8
VHH-025
100
AcDbCircle
 10
105.971103
 20
-424.275503
 30
0.0
 40
2.75
100
AcDbArc
 50
96.251038
 51
277.748962
  0
ARC
  5
156D
100
AcDbEntity
  8
VHH-025
100
AcDbCircle
 10
122.395017
 20
-434.608182
 30
0.0
 40
16.0
100
AcDbArc
 50
90.0
 51
158.746191
  0
ARC
  5
156E
100
AcDbEntity
  8
VHH-025
100
AcDbCircle
 10
122.395017
 20
-434.608182
 30
0.0
 40
16.0
100
AcDbArc
 50
21.253809
 51
90.0
  0
CIRCLE
  5
156F
100
AcDbEntity
  8
VHH-025
100
AcDbCircle
 10
165.202966
 20
-427.596909
 30
0.0
 40
2.75
  0
CIRCLE
  5
1570
100
AcDbEntity
  8
VHH-025
100
AcDbCircle
 10
94.889564
 20
-431.092093
 30
0.0
 40
2.75
  0
LWPOLYLINE
  5
1571
100
AcDbEntity
  8
VHH-025
100
AcDbPolyline
 90
        6
 70
     0
 43
0.0
 10
136.17752
 20
-437.337625
 10
135.911821
 20
-434.648849
 10
135.128389
 20
-432.063289
 10
133.85402
 20
-429.681
 10
132.140718
 20
-427.591923
 10
131.803162
 20
-427.265796
  0
LWPOLYLINE
  5
1572
100
AcDbEntity
  8
VHH-025
100
AcDbPolyline
 90
        6
 70
     0
 43
0.0
 10
132.172575
 20
-427.265841
 10
133.626381
 20
-428.984675
 10
134.539659
 20
-430.441283
 10
135.940956
 20
-434.199752
 10
136.240741
 20
-436.239798
 10
136.268365
 20
-438.089665
  0
LWPOLYLINE
  5
1573
100
AcDbEntity
  8
VHH-025
100
AcDbPolyline
 90
        6
 70
     0
 43
0.0
 10
108.612514
 20
-437.337625
 10
108.878212
 20
-434.648849
 10
109.661644
 20
-432.063289
 10
110.936014
 20
-429.681
 10
112.649315
 20
-427.591923
 10
112.986872
 20
-427.265796
  0
LWPOLYLINE
  5
1574
100
AcDbEntity
  8
VHH-025
100
AcDbPolyline
 90
        6
 70
     0
 43
0.0
 10
108.521667
 20
-438.089665
 10
108.551759
 20
-436.208038
 10
109.280038
 20
-432.652531
 10
110.345648
 20
-430.269373
 10
111.228843
 20
-428.894332
 10
112.617467
 20
-427.265849
  0
LWPOLYLINE
  5
1575
100
AcDbEntity
  8
VHH-025
100
AcDbPolyline
 90
        9
 70
     0
 43
0.0
 10
131.803162
 20
-427.265796
 10
132.157871
 20
-427.265054
 10
132.052535
 20
-427.266103
 10
131.532634
 20
-427.266255
 10
130.585207
 20
-427.265802
 10
129.182995
 20
-427.265592
 10
127.299985
 20
-427.265745
 10
124.961254
 20
-427.26606
 10
122.395017
 20
-427.265796
  0
LWPOLYLINE
  5
1576
100
AcDbEntity
  8
VHH-025
100
AcDbPolyline
 90
        9
 70
     0
 43
0.0
 10
112.986872
 20
-427.265796
 10
112.632163
 20
-427.265054
 10
112.737499
 20
-427.266103
 10
113.2574
 20
-427.266255
 10
114.204827
 20
-427.265802
 10
115.607038
 20
-427.265592
 10
117.490049
 20
-427.265745
 10
119.828779
 20
-427.26606
 10
122.395017
 20
-427.265796
  0
LINE
  5
1577
100
AcDbEntity
  8
VHH-025
100
AcDbLine
 10
138.226171
 20
-428.808182
 30
0.0
 11
137.306757
 21
-428.808182
 31
0.0
  0
LINE
  5
1578
100
AcDbEntity
  8
VHH-025
100
AcDbLine
 10
106.563863
 20
-428.808182
 30
0.0
 11
107.483277
 21
-428.808182
 31
0.0
  0
CIRCLE
  5
1579
100
AcDbEntity
  8
VHH-025
100
AcDbCircle
 10
149.889564
 20
-431.092093
 30
0.0
 40
2.75
  0
CIRCLE
  5
157A
100
AcDbEntity
  8
VHH-025
100
AcDbCircle
 10
167.616671
 20
-417.021775
 30
0.0
 40
2.75
  0
CIRCLE
  5
157B
100
AcDbEntity
  8
VHH-025
100
AcDbCircle
 10
156.916078
 20
-420.142458
 30
0.0
 40
2.75
  0
CIRCLE
  5
157C
100
AcDbEntity
  8
VHH-025
100
AcDbCircle
 10
87.863051
 20
-420.142458
 30
0.0
 40
2.75
  0
CIRCLE
  5
157D
100
AcDbEntity
  8
VHH-025
100
AcDbCircle
 10
97.912262
 20
-417.848791
 30
0.0
 40
2.75
  0
CIRCLE
  5
157E
100
AcDbEntity
  8
VHH-025
100
AcDbCircle
 10
146.866867
 20
-417.848791
 30
0.0
 40
2.75
  0
LINE
  5
157F
100
AcDbEntity
  8
VHH-025
100
AcDbLine
 10
137.706403
 20
-428.808182
 30
0.0
 11
143.56717
 21
-378.333469
 31
0.0
  0
LINE
  5
1580
100
AcDbEntity
  8
VHH-025
100
AcDbLine
 10
138.226171
 20
-428.808182
 30
0.0
 11
144.427131
 21
-378.305411
 31
0.0
  0
LINE
  5
1581
100
AcDbEntity
  8
VHH-025
100
AcDbLine
 10
107.08363
 20
-428.808182
 30
0.0
 11
101.222897
 21
-378.333755
 31
0.0
  0
LINE
  5
1582
100
AcDbEntity
  8
VHH-025
100
AcDbLine
 10
106.563863
 20
-428.808182
 30
0.0
 11
100.362937
 21
-378.305697
 31
0.0
  0
LWPOLYLINE
  5
1583
100
AcDbEntity
  8
VHH-025
100
AcDbPolyline
 90
       12
 70
     0
 43
0.0
 10
82.390651
 20
-312.144755
 10
82.514182
 20
-310.93351
 10
82.667522
 20
-310.343146
 10
82.881651
 20
-309.767589
 10
83.47499
 20
-308.704367
 10
83.853309
 20
-308.218877
 10
84.277007
 20
-307.776926
 10
85.24922
 20
-307.032866
 10
86.353463
 20
-306.501187
 10
86.941089
 20
-306.32249
 10
87.547794
 20
-306.204251
 10
88.776691
 20
-306.157187
  0
LWPOLYLINE
  5
1584
100
AcDbEntity
  8
VHH-025
100
AcDbPolyline
 90
        7
 70
     0
 43
0.0
 10
15.432548
 20
-285.030523
 10
16.382437
 20
-285.768176
 10
16.785858
 20
-286.219677
 10
17.130334
 20
-286.71428
 10
17.411933
 20
-287.245287
 10
17.629333
 20
-287.811206
 10
17.851032
 20
-288.996634
  0
LINE
  5
1585
100
AcDbEntity
  8
VHH-025
100
AcDbLine
 10
19.492341
 20
-260.900015
 30
0.0
 11
17.206595
 21
-260.900015
 31
0.0
  0
LWPOLYLINE
  5
1586
100
AcDbEntity
  8
VHH-025
100
AcDbPolyline
 90
        3
 70
     0
 43
0.0
 10
11.219635
 20
-260.900015
 10
12.277993
 20
-260.900015
 10
14.499875
 20
-260.900015
  0
LWPOLYLINE
  5
1587
100
AcDbEntity
  8
VHH-025
100
AcDbPolyline
 90
        3
 70
     0
 43
0.0
 10
15.168652
 20
-260.900015
 10
14.774662
 20
-260.900015
 10
14.499875
 20
-260.900015
  0
LWPOLYLINE
  5
1588
100
AcDbEntity
  8
VHH-025
100
AcDbPolyline
 90
        5
 70
     0
 43
0.0
 10
17.206595
 20
-260.900015
 10
17.026169
 20
-260.900015
 10
16.61211
 20
-260.900015
 10
15.981558
 20
-260.900015
 10
15.168652
 20
-260.900015
  0
LWPOLYLINE
  5
1589
100
AcDbEntity
  8
VHH-025
100
AcDbPolyline
 90
        4
 70
     0
 43
0.0
 10
14.515187
 20
-283.779169
 10
14.847434
 20
-284.497473
 10
15.113209
 20
-284.793098
 10
15.432548
 20
-285.030523
  0
LWPOLYLINE
  5
158A
100
AcDbEntity
  8
VHH-025
100
AcDbPolyline
 90
        5
 70
     0
 43
0.0
 10
11.219635
 20
-260.900015
 10
11.403402
 20
-263.787681
 10
11.653873
 20
-266.669884
 10
12.348566
 20
-272.414443
 10
14.515187
 20
-283.779169
  0
LWPOLYLINE
  5
158B
100
AcDbEntity
  8
VHH-025
100
AcDbPolyline
 90
       10
 70
     0
 43
0.0
 10
14.499875
 20
-260.900015
 10
14.519235
 20
-261.302155
 10
14.544367
 20
-261.823216
 10
14.595072
 20
-262.869622
 10
14.620634
 20
-263.394101
 10
14.646257
 20
-263.917829
 10
14.69767
 20
-264.963027
 10
14.906308
 20
-269.128191
 10
15.121854
 20
-273.261293
 10
15.349909
 20
-277.349502
  0
ARC
  5
158C
100
AcDbEntity
  8
VHH-025
100
AcDbCircle
 10
2.98596
 20
-292.24681
 30
0.0
 40
2.0
100
AcDbArc
 50
113.797726
 51
166.976183
  0
LINE
  5
158D
100
AcDbEntity
  8
VHH-025
100
AcDbLine
 10
2.178942
 20
-290.416858
 30
0.0
 11
5.391739
 21
-288.999998
 31
0.0
  0
LINE
  5
158E
100
AcDbEntity
  8
VHH-025
100
AcDbLine
 10
11.219635
 20
-260.900015
 30
0.0
 11
7.389564
 21
-260.900015
 31
0.0
  0
LWPOLYLINE
  5
158F
100
AcDbEntity
  8
VHH-025
100
AcDbPolyline
 90
        2
 70
     0
 43
0.0
 10
82.390651
 20
-330.232757
 10
82.390651
 20
-312.144755
  0
LWPOLYLINE
  5
1590
100
AcDbEntity
  8
VHH-025
100
AcDbPolyline
 90
        2
 70
     0
 43
0.0
 10
82.390651
 20
-330.076085
 10
82.390651
 20
-312.144755
  0
ARC
  5
1591
100
AcDbEntity
  8
VHH-025
100
AcDbCircle
 10
2.98596
 20
-315.75319
 30
0.0
 40
2.0
100
AcDbArc
 50
193.023817
 51
246.202274
  0
LINE
  5
1592
100
AcDbEntity
  8
VHH-025
100
AcDbLine
 10
2.178942
 20
-317.583142
 30
0.0
 11
5.391739
 21
-319.000002
 31
0.0
  0
LWPOLYLINE
  5
1593
100
AcDbEntity
  8
VHH-025
100
AcDbPolyline
 90
        7
 70
     0
 43
0.0
 10
26.175898
 20
-320.781111
 10
26.250216
 20
-321.26022
 10
26.396124
 20
-321.721711
 10
26.612438
 20
-322.154928
 10
26.895024
 20
-322.54679
 10
27.634461
 20
-323.163177
 10
28.538425
 20
-323.494167
  0
LWPOLYLINE
  5
1594
100
AcDbEntity
  8
VHH-025
100
AcDbPolyline
 90
       17
 70
     0
 43
0.0
 10
28.320912
 20
-325.438479
 10
27.550283
 20
-325.22641
 10
27.181475
 20
-325.074418
 10
27.002243
 20
-324.987349
 10
26.826847
 20
-324.893077
 10
26.178173
 20
-324.454475
 10
25.878947
 20
-324.193879
 10
25.736697
 20
-324.053675
 10
25.667549
 20
-323.981158
 10
25.599771
 20
-323.907056
 10
25.133668
 20
-323.295042
 10
24.932691
 20
-322.952399
 10
24.841503
 20
-322.772391
 10
24.798398
 20
-322.680291
 10
24.777488
 20
-322.633727
 10
24.757015
 20
-322.586824
 10
24.375693
 20
-321.070264
  0
LWPOLYLINE
  5
1595
100
AcDbEntity
  8
VHH-025
100
AcDbPolyline
 90
       10
 70
     0
 43
0.0
 10
28.538425
 20
-323.494167
 10
41.822057
 20
-325.697682
 10
48.553797
 20
-326.673372
 10
51.941952
 20
-327.129681
 10
53.641572
 20
-327.34995
 10
54.492764
 20
-327.458113
 10
54.918704
 20
-327.511701
 10
55.131761
 20
-327.538372
 10
55.344875
 20
-327.564961
 10
82.390651
 20
-330.232757
  0
ELLIPSE
  5
1596
100
AcDbEntity
  8
VHH-025
100
AcDbEllipse
 10
2.479098
 20
-304.0
 30
0.0
 11
0.0000000000000028
 21
15.00000158390139
 31
0.0
210
0.0
220
0.0
230
-1.0
 40
0.165303
 41
3.762083072775144
 42
5.662694887994181
  0
LWPOLYLINE
  5
1597
100
AcDbEntity
  8
VHH-025
100
AcDbPolyline
 90
        7
 70
     0
 43
0.0
 10
21.947988
 20
-260.40696
 10
22.895459
 20
-275.403101
 10
23.396584
 20
-282.930982
 10
23.65399
 20
-286.701732
 10
23.915956
 20
-290.476778
 10
25.010124
 20
-305.61892
 10
26.175898
 20
-320.781111
  0
CIRCLE
  5
1598
100
AcDbEntity
  8
VHH-025
100
AcDbCircle
 10
88.690695
 20
-312.007599
 30
0.0
 40
2.204139
  0
CIRCLE
  5
1599
100
AcDbEntity
  8
VHH-025
100
AcDbCircle
 10
156.086256
 20
-312.007599
 30
0.0
 40
2.204139
  0
LWPOLYLINE
  5
159A
100
AcDbEntity
  8
VHH-025
100
AcDbPolyline
 90
        2
 70
     0
 43
0.0
 10
162.390651
 20
-312.144755
 10
162.390651
 20
-330.232757
  0
LWPOLYLINE
  5
159B
100
AcDbEntity
  8
VHH-025
100
AcDbPolyline
 90
        2
 70
     0
 43
0.0
 10
162.390651
 20
-330.076085
 10
162.390651
 20
-312.144755
  0
LWPOLYLINE
  5
159C
100
AcDbEntity
  8
VHH-025
100
AcDbPolyline
 90
       11
 70
     0
 43
0.0
 10
156.004611
 20
-306.157187
 10
157.229889
 20
-306.203739
 10
157.833004
 20
-306.3207
 10
158.423964
 20
-306.49979
 10
159.526533
 20
-307.02946
 10
160.035361
 20
-307.378615
 10
160.501988
 20
-307.774755
 10
161.303304
 20
-308.700072
 10
161.898237
 20
-309.764314
 10
162.266599
 20
-310.930986
 10
162.390651
 20
-312.144755
  0
LWPOLYLINE
  5
159D
100
AcDbEntity
  8
VHH-025
100
AcDbPolyline
 90
        2
 70
     0
 43
0.0
 10
115.848859
 20
-307.22157
 10
88.776691
 20
-306.157187
  0
LWPOLYLINE
  5
159E
100
AcDbEntity
  8
VHH-025
100
AcDbPolyline
 90
        2
 70
     0
 43
0.0
 10
122.390651
 20
-307.276471
 10
128.932443
 20
-307.22157
  0
LWPOLYLINE
  5
159F
100
AcDbEntity
  8
VHH-025
100
AcDbPolyline
 90
        2
 70
     0
 43
0.0
 10
122.390651
 20
-307.276471
 10
115.848859
 20
-307.22157
  0
LWPOLYLINE
  5
15A0
100
AcDbEntity
  8
VHH-025
100
AcDbPolyline
 90
        2
 70
     0
 43
0.0
 10
128.932443
 20
-307.22157
 10
156.004611
 20
-306.157187
  0
LWPOLYLINE
  5
15A1
100
AcDbEntity
  8
VHH-025
100
AcDbPolyline
 90
        4
 70
     0
 43
0.0
 10
312.39065
 20
-332.247411
 10
312.39065
 20
-331.917643
 10
312.39065
 20
-331.439353
 10
312.39065
 20
-330.232757
  0
LWPOLYLINE
  5
15A2
100
AcDbEntity
  8
VHH-025
100
AcDbPolyline
 90
        2
 70
     0
 43
0.0
 10
345.848858
 20
-331.217272
 10
318.77669
 20
-330.152889
  0
LWPOLYLINE
  5
15A3
100
AcDbEntity
  8
VHH-025
100
AcDbPolyline
 90
       22
 70
     0
 43
0.0
 10
258.320911
 20
-325.438479
 10
258.070091
 20
-329.311101
 10
257.937149
 20
-331.122235
 10
257.868814
 20
-331.997309
 10
257.834184
 20
-332.427339
 10
257.816753
 20
-332.640492
 10
257.808009
 20
-332.746605
 10
257.803629
 20
-332.799545
 10
257.799245
 20
-332.852409
 10
257.652184
 20
-334.551211
 10
257.576955
 20
-335.367613
 10
257.538918
 20
-335.767709
 10
257.519794
 20
-335.965708
 10
257.510205
 20
-336.064189
 10
257.500598
 20
-336.162332
 10
257.345446
 20
-337.699691
 10
257.264934
 20
-338.468856
 10
257.22395
 20
-338.853427
 10
257.203275
 20
-339.045676
 10
257.182479
 20
-339.237889
 10
256.503231
 20
-344.897491
 10
255.789385
 20
-349.704212
  0
LWPOLYLINE
  5
15A4
100
AcDbEntity
  8
VHH-025
100
AcDbPolyline
 90
       22
 70
     0
 43
0.0
 10
218.991916
 20
-349.704212
 10
218.278084
 20
-344.897253
 10
217.934186
 20
-342.177282
 10
217.765443
 20
-340.735432
 10
217.681868
 20
-339.993675
 10
217.640279
 20
-339.617543
 10
217.619534
 20
-339.428157
 10
217.598822
 20
-339.237889
 10
217.435855
 20
-337.699691
 10
217.357286
 20
-336.931169
 10
217.31874
 20
-336.546954
 10
217.299657
 20
-336.354717
 10
217.290164
 20
-336.258546
 10
217.280703
 20
-336.162332
 10
217.129117
 20
-334.551211
 10
217.055018
 20
-333.712936
 10
217.018394
 20
-333.285478
 10
217.00019
 20
-333.069648
 10
216.991114
 20
-332.961205
 10
216.986583
 20
-332.906851
 10
216.982056
 20
-332.852409
 10
216.46039
 20
-325.438479
  0
LWPOLYLINE
  5
15A5
100
AcDbEntity
  8
VHH-025
100
AcDbPolyline
 90
        3
 70
     0
 43
0.0
 10
222.685131
 20
-345.242635
 10
225.482317
 20
-310.20501
 10
226.93027
 20
-288.996634
  0
LWPOLYLINE
  5
15A6
100
AcDbEntity
  8
VHH-025
100
AcDbPolyline
 90
        3
 70
     0
 43
0.0
 10
247.851031
 20
-288.996634
 10
249.298984
 20
-310.20501
 10
252.09617
 20
-345.242635
  0
LWPOLYLINE
  5
15A7
100
AcDbEntity
  8
VHH-025
100
AcDbPolyline
 90
        3
 70
     0
 43
0.0
 10
256.815796
 20
-364.642158
 10
279.404941
 20
-369.869575
 10
281.392202
 20
-370.195853
  0
LWPOLYLINE
  5
15A8
100
AcDbEntity
  8
VHH-025
100
AcDbPolyline
 90
        5
 70
     0
 43
0.0
 10
256.946526
 20
-366.653027
 10
279.404941
 20
-371.880444
 10
303.475623
 20
-375.83248
 10
327.855112
 20
-378.223874
 10
328.943999
 20
-378.259401
  0
LWPOLYLINE
  5
15A9
100
AcDbEntity
  8
VHH-025
100
AcDbPolyline
 90
        2
 70
     0
 43
0.0
 10
253.253311
 20
-362.191451
 10
252.102727
 20
-345.242635
  0
LWPOLYLINE
  5
15AA
100
AcDbEntity
  8
VHH-025
100
AcDbPolyline
 90
        8
 70
     0
 43
0.0
 10
256.946526
 20
-366.653027
 10
255.543976
 20
-366.03232
 10
254.930253
 20
-365.564651
 10
254.398535
 20
-365.010884
 10
253.954734
 20
-364.378595
 10
253.613746
 20
-363.691312
 10
253.377388
 20
-362.954734
 10
253.253311
 20
-362.191451
  0
LWPOLYLINE
  5
15AB
100
AcDbEntity
  8
VHH-025
100
AcDbPolyline
 90
        8
 70
     0
 43
0.0
 10
256.815796
 20
-364.642158
 10
255.413246
 20
-364.021451
 10
254.799523
 20
-363.553782
 10
254.267804
 20
-363.000015
 10
253.824003
 20
-362.367726
 10
253.483016
 20
-361.680443
 10
253.246658
 20
-360.943865
 10
253.122581
 20
-360.180582
  0
LWPOLYLINE
  5
15AC
100
AcDbEntity
  8
VHH-025
100
AcDbPolyline
 90
        8
 70
     0
 43
0.0
 10
252.09617
 20
-345.242635
 10
252.453428
 20
-346.734651
 10
252.795851
 20
-347.426843
 10
253.235563
 20
-348.054969
 10
253.770177
 20
-348.613212
 10
254.379479
 20
-349.078747
 10
255.058848
 20
-349.446813
 10
255.789385
 20
-349.704212
  0
LWPOLYLINE
  5
15AD
100
AcDbEntity
  8
VHH-025
100
AcDbPolyline
 90
        2
 70
     0
 43
0.0
 10
221.52799
 20
-362.191451
 10
222.685131
 20
-345.242635
  0
LWPOLYLINE
  5
15AE
100
AcDbEntity
  8
VHH-025
100
AcDbPolyline
 90
        8
 70
     0
 43
0.0
 10
217.834775
 20
-366.653027
 10
219.237325
 20
-366.03232
 10
219.851048
 20
-365.564651
 10
220.382766
 20
-365.010884
 10
220.826567
 20
-364.378595
 10
221.167555
 20
-363.691312
 10
221.403913
 20
-362.954734
 10
221.52799
 20
-362.191451
  0
LWPOLYLINE
  5
15AF
100
AcDbEntity
  8
VHH-025
100
AcDbPolyline
 90
        8
 70
     0
 43
0.0
 10
218.991916
 20
-349.704212
 10
220.394466
 20
-349.083505
 10
221.008189
 20
-348.615836
 10
221.539907
 20
-348.062068
 10
221.983708
 20
-347.429779
 10
222.324696
 20
-346.742497
 10
222.561054
 20
-346.005918
 10
222.685131
 20
-345.242635
  0
LINE
  5
15B0
100
AcDbEntity
  8
VHH-025
100
AcDbLine
 10
235.391738
 20
-332.0
 30
0.0
 11
251.038961
 21
-332.0
 31
0.0
  0
LINE
  5
15B1
100
AcDbEntity
  8
VHH-025
100
AcDbLine
 10
223.742341
 20
-332.0
 30
0.0
 11
239.387389
 21
-332.0
 31
0.0
  0
CIRCLE
  5
15B2
100
AcDbEntity
  8
VHH-025
100
AcDbCircle
 10
177.389564
 20
-424.815397
 30
0.0
 40
6.25
  0
CIRCLE
  5
15B3
100
AcDbEntity
  8
VHH-025
100
AcDbCircle
 10
182.813111
 20
-436.077508
 30
0.0
 40
2.75
  0
CIRCLE
  5
15B4
100
AcDbEntity
  8
VHH-025
100
AcDbCircle
 10
189.576163
 20
-427.596909
 30
0.0
 40
2.75
  0
CIRCLE
  5
15B5
100
AcDbEntity
  8
VHH-025
100
AcDbCircle
 10
177.389564
 20
-412.315397
 30
0.0
 40
2.75
  0
CIRCLE
  5
15B6
100
AcDbEntity
  8
VHH-025
100
AcDbCircle
 10
187.162458
 20
-417.021775
 30
0.0
 40
2.75
  0
CIRCLE
  5
15B7
100
AcDbEntity
  8
VHH-025
100
AcDbCircle
 10
197.863051
 20
-420.142458
 30
0.0
 40
2.75
  0
CIRCLE
  5
15B8
100
AcDbEntity
  8
VHH-025
100
AcDbCircle
 10
186.501123
 20
-405.895051
 30
0.0
 40
2.75
  0
LWPOLYLINE
  5
15B9
100
AcDbEntity
  8
VHH-025
100
AcDbPolyline
 90
        6
 70
   128
 43
0.0
 10
327.160059
 20
-366.978384
 10
327.090169
 20
-365.863881
 10
327.019402
 20
-364.667928
 10
326.951596
 20
-363.412863
 10
326.88979
 20
-362.109549
 10
326.861686
 20
-361.413551
  0
LWPOLYLINE
  5
15BA
100
AcDbEntity
  8
VHH-025
100
AcDbPolyline
 90
        4
 70
   128
 43
0.0
 10
331.025439
 20
-386.178048
 10
330.741328
 20
-385.960594
 10
330.49322
 20
-385.686172
 10
330.179633
 20
-385.064296
  0
LWPOLYLINE
  5
15BB
100
AcDbEntity
  8
VHH-025
100
AcDbPolyline
 90
        4
 70
   128
 43
0.0
 10
331.664045
 20
-385.709295
 10
331.161703
 20
-385.266157
 10
330.834369
 20
-384.681439
 10
330.802343
 20
-384.58332
  0
LWPOLYLINE
  5
15BC
100
AcDbEntity
  8
VHH-025
100
AcDbPolyline
 90
        6
 70
   128
 43
0.0
 10
328.903382
 20
-378.015413
 10
328.955389
 20
-378.327817
 10
328.995428
 20
-378.595244
 10
329.021749
 20
-378.815499
 10
329.029421
 20
-378.96326
 10
329.022436
 20
-379.016961
  0
LWPOLYLINE
  5
15BD
100
AcDbEntity
  8
VHH-025
100
AcDbPolyline
 90
        5
 70
   128
 43
0.0
 10
328.527975
 20
-376.028376
 10
328.626796
 20
-376.530559
 10
328.723648
 20
-377.033134
 10
328.818892
 20
-377.542072
 10
328.903382
 20
-378.015413
  0
LWPOLYLINE
  5
15BE
100
AcDbEntity
  8
VHH-025
100
AcDbPolyline
 90
        3
 70
   128
 43
0.0
 10
330.802343
 20
-384.58332
 10
329.888317
 20
-381.296204
 10
329.092993
 20
-377.973729
  0
LWPOLYLINE
  5
15BF
100
AcDbEntity
  8
VHH-025
100
AcDbPolyline
 90
        6
 70
   128
 43
0.0
 10
329.092993
 20
-377.973729
 10
328.288312
 20
-373.920539
 10
327.653003
 20
-369.837362
 10
327.185617
 20
-365.702377
 10
326.891857
 20
-361.551441
 10
326.888032
 20
-361.416136
  0
ARC
  5
15C0
100
AcDbEntity
  8
VHH-025
100
AcDbCircle
 10
426.046686
 20
-356.659943
 30
0.0
 40
99.423514
100
AcDbArc
 50
185.957037
 51
191.233471
  0
ARC
  5
15C1
100
AcDbEntity
  8
VHH-025
100
AcDbCircle
 10
421.163295
 20
-357.733482
 30
0.0
 40
95.0
100
AcDbArc
 50
193.393932
 51
196.719876
  0
LINE
  5
15C2
100
AcDbEntity
  8
VHH-025
100
AcDbLine
 10
329.022436
 20
-379.016961
 30
0.0
 11
328.747255
 21
-379.739745
 31
0.0
  0
LWPOLYLINE
  5
15C3
100
AcDbEntity
  8
VHH-025
100
AcDbPolyline
 90
        2
 70
     0
 43
0.0
 10
296.602464
 20
-350.409728
 10
274.312674
 20
-346.856472
  0
LWPOLYLINE
  5
15C4
100
AcDbEntity
  8
VHH-025
100
AcDbPolyline
 90
        2
 70
     0
 43
0.0
 10
274.282349
 20
-335.399003
 10
296.626118
 20
-338.635308
  0
LWPOLYLINE
  5
15C5
100
AcDbEntity
  8
VHH-025
100
AcDbPolyline
 90
        2
 70
     0
 43
0.0
 10
274.389685
 20
-346.250771
 10
289.951753
 20
-348.858566
  0
LWPOLYLINE
  5
15C6
100
AcDbEntity
  8
VHH-025
100
AcDbPolyline
 90
        4
 70
     0
 43
0.0
 10
272.634251
 20
-346.077599
 10
272.575127
 20
-341.129313
 10
272.575807
 20
-338.476935
 10
272.601193
 20
-335.679996
  0
LWPOLYLINE
  5
15C7
100
AcDbEntity
  8
VHH-025
100
AcDbPolyline
 90
        4
 70
     0
 43
0.0
 10
273.172376
 20
-335.352316
 10
273.147409
 20
-338.094795
 10
273.146374
 20
-340.74926
 10
273.204874
 20
-345.701225
  0
LWPOLYLINE
  5
15C8
100
AcDbEntity
  8
VHH-025
100
AcDbPolyline
 90
        7
 70
     0
 43
0.0
 10
274.312674
 20
-346.856472
 10
273.987187
 20
-346.786552
 10
273.672956
 20
-346.701104
 10
273.384679
 20
-346.604247
 10
273.130089
 20
-346.498625
 10
272.765475
 20
-346.279907
 10
272.634251
 20
-346.077599
  0
LWPOLYLINE
  5
15C9
100
AcDbEntity
  8
VHH-025
100
AcDbPolyline
 90
        5
 70
     0
 43
0.0
 10
274.389685
 20
-346.250771
 10
273.938403
 20
-346.141307
 10
273.554991
 20
-345.998462
 10
273.297518
 20
-345.844094
 10
273.204874
 20
-345.701225
  0
LWPOLYLINE
  5
15CA
100
AcDbEntity
  8
VHH-025
100
AcDbPolyline
 90
        7
 70
     0
 43
0.0
 10
272.601193
 20
-335.679996
 10
272.634755
 20
-335.575166
 10
272.731584
 20
-335.48509
 10
272.886839
 20
-335.413898
 10
273.096333
 20
-335.36347
 10
273.639947
 20
-335.333098
 10
274.282349
 20
-335.399003
  0
LINE
  5
15CB
100
AcDbEntity
  8
VHH-025
100
AcDbLine
 10
272.610878
 20
-335.623127
 30
0.0
 11
272.601193
 21
-335.679996
 31
0.0
  0
LWPOLYLINE
  5
15CC
100
AcDbEntity
  8
VHH-025
100
AcDbPolyline
 90
       15
 70
     0
 43
0.0
 10
294.49608
 20
-341.617936
 10
294.931904
 20
-341.687478
 10
295.351074
 20
-341.782319
 10
296.072509
 20
-342.031396
 10
296.349135
 20
-342.176727
 10
296.553618
 20
-342.327961
 10
296.679668
 20
-342.480577
 10
296.721192
 20
-342.627072
 10
296.677147
 20
-342.763369
 10
296.549288
 20
-342.883097
 10
296.342563
 20
-342.982012
 10
296.06402
 20
-343.056478
 10
295.726778
 20
-343.10312
 10
295.340072
 20
-343.120619
 10
294.484806
 20
-343.065665
  0
LWPOLYLINE
  5
15CD
100
AcDbEntity
  8
VHH-025
100
AcDbPolyline
 90
       13
 70
     0
 43
0.0
 10
294.493756
 20
-341.861842
 10
294.783531
 20
-341.908136
 10
295.062831
 20
-341.971356
 10
295.318798
 20
-342.048548
 10
295.544326
 20
-342.13761
 10
295.865298
 20
-342.335395
 10
295.977132
 20
-342.534687
 10
295.947791
 20
-342.625562
 10
295.862812
 20
-342.705146
 10
295.724574
 20
-342.771249
 10
295.539421
 20
-342.820708
 10
295.056166
 20
-342.863534
 10
294.486237
 20
-342.82701
  0
LWPOLYLINE
  5
15CE
100
AcDbEntity
  8
VHH-025
100
AcDbPolyline
 90
        2
 70
     0
 43
0.0
 10
291.563429
 20
-338.240329
 10
296.621709
 20
-338.876096
  0
LWPOLYLINE
  5
15CF
100
AcDbEntity
  8
VHH-025
100
AcDbPolyline
 90
        4
 70
     0
 43
0.0
 10
291.132045
 20
-348.697835
 10
291.093732
 20
-343.626757
 10
291.106166
 20
-340.905496
 10
291.142284
 20
-338.046001
  0
LWPOLYLINE
  5
15D0
100
AcDbEntity
  8
VHH-025
100
AcDbPolyline
 90
        4
 70
     0
 43
0.0
 10
291.563429
 20
-338.240329
 10
291.522756
 20
-341.27995
 10
291.508594
 20
-344.164923
 10
291.551138
 20
-349.518228
  0
LWPOLYLINE
  5
15D1
100
AcDbEntity
  8
VHH-025
100
AcDbPolyline
 90
       16
 70
     0
 43
0.0
 10
294.484806
 20
-343.065665
 10
294.050236
 20
-342.995614
 10
293.631385
 20
-342.900155
 10
293.247524
 20
-342.783823
 10
292.909301
 20
-342.649847
 10
292.633376
 20
-342.504812
 10
292.427867
 20
-342.353095
 10
292.259984
 20
-342.054973
 10
292.303895
 20
-341.91927
 10
292.431263
 20
-341.800518
 10
292.638536
 20
-341.701913
 10
292.916209
 20
-341.628109
 10
293.254474
 20
-341.581513
 10
293.641081
 20
-341.563959
 10
294.058342
 20
-341.576132
 10
294.49608
 20
-341.617936
  0
LWPOLYLINE
  5
15D2
100
AcDbEntity
  8
VHH-025
100
AcDbPolyline
 90
       13
 70
     0
 43
0.0
 10
294.486237
 20
-342.82701
 10
294.196511
 20
-342.780392
 10
293.917264
 20
-342.716837
 10
293.661344
 20
-342.639354
 10
293.435853
 20
-342.550086
 10
293.114895
 20
-342.352256
 10
293.002992
 20
-342.153394
 10
293.032279
 20
-342.062843
 10
293.117205
 20
-341.98359
 10
293.255398
 20
-341.917781
 10
293.440521
 20
-341.868528
 10
293.92377
 20
-341.825751
 10
294.493756
 20
-341.861842
  0
LWPOLYLINE
  5
15D3
100
AcDbEntity
  8
VHH-025
100
AcDbPolyline
 90
        2
 70
     0
 43
0.0
 10
294.852861
 20
-346.128489
 10
294.860133
 20
-347.467319
  0
LWPOLYLINE
  5
15D4
100
AcDbEntity
  8
VHH-025
100
AcDbPolyline
 90
        4
 70
     0
 43
0.0
 10
294.860133
 20
-347.467319
 10
294.56037
 20
-347.427281
 10
294.338831
 20
-347.397553
 10
294.117309
 20
-347.36771
  0
LWPOLYLINE
  5
15D5
100
AcDbEntity
  8
VHH-025
100
AcDbPolyline
 90
        2
 70
     0
 43
0.0
 10
294.117309
 20
-347.36771
 10
294.109855
 20
-346.029954
  0
LWPOLYLINE
  5
15D6
100
AcDbEntity
  8
VHH-025
100
AcDbPolyline
 90
        4
 70
     0
 43
0.0
 10
294.109855
 20
-346.029954
 10
294.40907
 20
-346.069792
 10
294.630957
 20
-346.099198
 10
294.852861
 20
-346.128489
  0
LWPOLYLINE
  5
15D7
100
AcDbEntity
  8
VHH-025
100
AcDbPolyline
 90
        2
 70
     0
 43
0.0
 10
291.132045
 20
-348.697835
 10
291.130535
 20
-348.716204
  0
LWPOLYLINE
  5
15D8
100
AcDbEntity
  8
VHH-025
100
AcDbPolyline
 90
        2
 70
     0
 43
0.0
 10
291.106783
 20
-337.939924
 10
291.142284
 20
-338.046001
  0
LWPOLYLINE
  5
15D9
100
AcDbEntity
  8
VHH-025
100
AcDbPolyline
 90
        2
 70
     0
 43
0.0
 10
291.603461
 20
-338.005269
 10
291.563429
 20
-338.240329
  0
LWPOLYLINE
  5
15DA
100
AcDbEntity
  8
VHH-025
100
AcDbPolyline
 90
        3
 70
     0
 43
0.0
 10
298.303801
 20
-339.418526
 10
298.248146
 20
-345.040784
 10
298.279754
 20
-350.151434
  0
LWPOLYLINE
  5
15DB
100
AcDbEntity
  8
VHH-025
100
AcDbPolyline
 90
        3
 70
     0
 43
0.0
 10
297.608566
 20
-339.336903
 10
297.553554
 20
-344.955384
 10
297.585769
 20
-350.062475
  0
LWPOLYLINE
  5
15DC
100
AcDbEntity
  8
VHH-025
100
AcDbPolyline
 90
        2
 70
     0
 43
0.0
 10
298.279754
 20
-350.151434
 10
298.277573
 20
-350.177698
  0
LWPOLYLINE
  5
15DD
100
AcDbEntity
  8
VHH-025
100
AcDbPolyline
 90
        2
 70
     0
 43
0.0
 10
297.585769
 20
-350.062475
 10
297.58449
 20
-350.077904
  0
LWPOLYLINE
  5
15DE
100
AcDbEntity
  8
VHH-025
100
AcDbPolyline
 90
        6
 70
     0
 43
0.0
 10
296.602464
 20
-350.409728
 10
297.086939
 20
-350.470247
 10
297.389662
 20
-350.48035
 10
297.664317
 20
-350.465255
 10
298.082199
 20
-350.362793
 10
298.277573
 20
-350.177698
  0
LWPOLYLINE
  5
15DF
100
AcDbEntity
  8
VHH-025
100
AcDbPolyline
 90
        7
 70
     0
 43
0.0
 10
296.626118
 20
-338.635308
 10
296.954881
 20
-338.685865
 10
297.271548
 20
-338.756974
 10
297.561299
 20
-338.845222
 10
297.816345
 20
-338.948249
 10
298.178709
 20
-339.180233
 10
298.303801
 20
-339.418526
  0
LWPOLYLINE
  5
15E0
100
AcDbEntity
  8
VHH-025
100
AcDbPolyline
 90
        4
 70
     0
 43
0.0
 10
296.621709
 20
-338.876096
 10
297.001115
 20
-338.947681
 10
297.321729
 20
-339.060278
 10
297.608566
 20
-339.336903
  0
LWPOLYLINE
  5
15E1
100
AcDbEntity
  8
VHH-025
100
AcDbPolyline
 90
        5
 70
     0
 43
0.0
 10
312.39065
 20
-355.058505
 10
312.39065
 20
-350.166299
 10
312.39065
 20
-344.743329
 10
312.39065
 20
-338.773094
 10
312.39065
 20
-332.247411
  0
LWPOLYLINE
  5
15E2
100
AcDbEntity
  8
VHH-025
100
AcDbPolyline
 90
       11
 70
     0
 43
0.0
 10
320.042734
 20
-357.785829
 10
318.537082
 20
-357.612295
 10
317.806632
 20
-357.498602
 10
317.093739
 20
-357.36717
 10
315.775193
 20
-357.06159
 10
314.616303
 20
-356.703832
 10
313.673095
 20
-356.311596
 10
313.287553
 20
-356.104501
 10
312.96928
 20
-355.895189
 10
312.537757
 20
-355.47399
 10
312.39065
 20
-355.058505
  0
ARC
  5
15E3
100
AcDbEntity
  8
VHH-025
100
AcDbCircle
 10
335.971102
 20
-424.275503
 30
0.0
 40
2.75
100
AcDbArc
 50
96.251038
 51
277.748962
  0
CIRCLE
  5
15E4
100
AcDbEntity
  8
VHH-025
100
AcDbCircle
 10
297.389563
 20
-424.815397
 30
0.0
 40
6.25
  0
LWPOLYLINE
  5
15E5
100
AcDbEntity
  8
VHH-025
100
AcDbPolyline
 90
        6
 70
     0
 43
0.0
 10
338.612513
 20
-437.337625
 10
338.878211
 20
-434.648849
 10
339.661643
 20
-432.063289
 10
340.936013
 20
-429.681
 10
342.649314
 20
-427.591923
 10
342.986871
 20
-427.265796
  0
LWPOLYLINE
  5
15E6
100
AcDbEntity
  8
VHH-025
100
AcDbPolyline
 90
        6
 70
     0
 43
0.0
 10
338.521666
 20
-438.089665
 10
338.551758
 20
-436.208038
 10
339.280037
 20
-432.652531
 10
340.345647
 20
-430.269373
 10
341.228842
 20
-428.894332
 10
342.617466
 20
-427.265849
  0
LINE
  5
15E7
100
AcDbEntity
  8
VHH-025
100
AcDbLine
 10
336.563862
 20
-428.808182
 30
0.0
 11
337.483275
 21
-428.808182
 31
0.0
  0
CIRCLE
  5
15E8
100
AcDbEntity
  8
VHH-025
100
AcDbCircle
 10
302.81311
 20
-436.077508
 30
0.0
 40
2.75
  0
CIRCLE
  5
15E9
100
AcDbEntity
  8
VHH-025
100
AcDbCircle
 10
291.966017
 20
-436.077508
 30
0.0
 40
2.75
  0
CIRCLE
  5
15EA
100
AcDbEntity
  8
VHH-025
100
AcDbCircle
 10
285.202964
 20
-427.596909
 30
0.0
 40
2.75
  0
CIRCLE
  5
15EB
100
AcDbEntity
  8
VHH-025
100
AcDbCircle
 10
309.576162
 20
-427.596909
 30
0.0
 40
2.75
  0
CIRCLE
  5
15EC
100
AcDbEntity
  8
VHH-025
100
AcDbCircle
 10
324.889563
 20
-431.092093
 30
0.0
 40
2.75
  0
CIRCLE
  5
15ED
100
AcDbEntity
  8
VHH-025
100
AcDbCircle
 10
327.912261
 20
-417.848791
 30
0.0
 40
2.75
  0
CIRCLE
  5
15EE
100
AcDbEntity
  8
VHH-025
100
AcDbCircle
 10
276.916077
 20
-420.142458
 30
0.0
 40
2.75
  0
CIRCLE
  5
15EF
100
AcDbEntity
  8
VHH-025
100
AcDbCircle
 10
297.389563
 20
-412.315397
 30
0.0
 40
2.75
  0
CIRCLE
  5
15F0
100
AcDbEntity
  8
VHH-025
100
AcDbCircle
 10
317.863049
 20
-420.142458
 30
0.0
 40
2.75
  0
CIRCLE
  5
15F1
100
AcDbEntity
  8
VHH-025
100
AcDbCircle
 10
307.162457
 20
-417.021775
 30
0.0
 40
2.75
  0
CIRCLE
  5
15F2
100
AcDbEntity
  8
VHH-025
100
AcDbCircle
 10
287.61667
 20
-417.021775
 30
0.0
 40
2.75
  0
LINE
  5
15F3
100
AcDbEntity
  8
VHH-025
100
AcDbLine
 10
337.083629
 20
-428.808182
 30
0.0
 11
332.21788
 21
-386.90286
 31
0.0
  0
LINE
  5
15F4
100
AcDbEntity
  8
VHH-025
100
AcDbLine
 10
336.563862
 20
-428.808182
 30
0.0
 11
331.354825
 21
-386.383984
 31
0.0
  0
CIRCLE
  5
15F5
100
AcDbEntity
  8
VHH-025
100
AcDbCircle
 10
306.501122
 20
-405.895051
 30
0.0
 40
2.75
  0
CIRCLE
  5
15F6
100
AcDbEntity
  8
VHH-025
100
AcDbCircle
 10
288.278005
 20
-405.895051
 30
0.0
 40
2.75
  0
LWPOLYLINE
  5
15F7
100
AcDbEntity
  8
VHH-025
100
AcDbPolyline
 90
        7
 70
     0
 43
0.0
 10
256.175897
 20
-320.781111
 10
256.250215
 20
-321.26022
 10
256.396122
 20
-321.721711
 10
256.612437
 20
-322.154928
 10
256.895023
 20
-322.54679
 10
257.63446
 20
-323.163177
 10
258.538424
 20
-323.494167
  0
LWPOLYLINE
  5
15F8
100
AcDbEntity
  8
VHH-025
100
AcDbPolyline
 90
        3
 70
     0
 43
0.0
 10
241.219633
 20
-260.900015
 10
242.277992
 20
-260.900015
 10
244.499874
 20
-260.900015
  0
LWPOLYLINE
  5
15F9
100
AcDbEntity
  8
VHH-025
100
AcDbPolyline
 90
        3
 70
     0
 43
0.0
 10
245.168651
 20
-260.900015
 10
244.774661
 20
-260.900015
 10
244.499874
 20
-260.900015
  0
LWPOLYLINE
  5
15FA
100
AcDbEntity
  8
VHH-025
100
AcDbPolyline
 90
        5
 70
     0
 43
0.0
 10
247.206594
 20
-260.900015
 10
247.026168
 20
-260.900015
 10
246.612108
 20
-260.900015
 10
245.981556
 20
-260.900015
 10
245.168651
 20
-260.900015
  0
LWPOLYLINE
  5
15FB
100
AcDbEntity
  8
VHH-025
100
AcDbPolyline
 90
        4
 70
     0
 43
0.0
 10
244.515185
 20
-283.779169
 10
244.847433
 20
-284.497473
 10
245.113208
 20
-284.793098
 10
245.432546
 20
-285.030523
  0
LWPOLYLINE
  5
15FC
100
AcDbEntity
  8
VHH-025
100
AcDbPolyline
 90
        7
 70
     0
 43
0.0
 10
245.432546
 20
-285.030523
 10
246.382436
 20
-285.768176
 10
246.785857
 20
-286.219677
 10
247.130333
 20
-286.71428
 10
247.411932
 20
-287.245287
 10
247.629332
 20
-287.811206
 10
247.851031
 20
-288.996634
  0
LWPOLYLINE
  5
15FD
100
AcDbEntity
  8
VHH-025
100
AcDbPolyline
 90
        5
 70
     0
 43
0.0
 10
241.219633
 20
-260.900015
 10
241.403401
 20
-263.787681
 10
241.653872
 20
-266.669884
 10
242.348565
 20
-272.414443
 10
244.515185
 20
-283.779169
  0
LWPOLYLINE
  5
15FE
100
AcDbEntity
  8
VHH-025
100
AcDbPolyline
 90
       10
 70
     0
 43
0.0
 10
244.499874
 20
-260.900015
 10
244.519234
 20
-261.302155
 10
244.544366
 20
-261.823216
 10
244.595071
 20
-262.869622
 10
244.620633
 20
-263.394101
 10
244.646256
 20
-263.917829
 10
244.697669
 20
-264.963027
 10
244.906307
 20
-269.128191
 10
245.121853
 20
-273.261293
 10
245.349908
 20
-277.349502
  0
LINE
  5
15FF
100
AcDbEntity
  8
VHH-025
100
AcDbLine
 10
249.49234
 20
-260.900015
 30
0.0
 11
247.206594
 21
-260.900015
 31
0.0
  0
LINE
  5
1600
100
AcDbEntity
  8
VHH-025
100
AcDbLine
 10
241.219633
 20
-260.900015
 30
0.0
 11
237.389563
 21
-260.900015
 31
0.0
  0
LWPOLYLINE
  5
1601
100
AcDbEntity
  8
VHH-025
100
AcDbPolyline
 90
        2
 70
     0
 43
0.0
 10
227.574707
 20
-260.900015
 10
225.288961
 20
-260.900015
  0
LWPOLYLINE
  5
1602
100
AcDbEntity
  8
VHH-025
100
AcDbPolyline
 90
        3
 70
     0
 43
0.0
 10
233.561668
 20
-260.900015
 10
232.503309
 20
-260.900015
 10
230.281428
 20
-260.900015
  0
LWPOLYLINE
  5
1603
100
AcDbEntity
  8
VHH-025
100
AcDbPolyline
 90
        5
 70
     0
 43
0.0
 10
229.61265
 20
-260.900015
 10
228.795676
 20
-260.900015
 10
228.167934
 20
-260.900015
 10
227.753456
 20
-260.900015
 10
227.574707
 20
-260.900015
  0
LWPOLYLINE
  5
1604
100
AcDbEntity
  8
VHH-025
100
AcDbPolyline
 90
        3
 70
     0
 43
0.0
 10
230.281428
 20
-260.900015
 10
230.005862
 20
-260.900015
 10
229.61265
 20
-260.900015
  0
LWPOLYLINE
  5
1605
100
AcDbEntity
  8
VHH-025
100
AcDbPolyline
 90
        7
 70
     0
 43
0.0
 10
226.93027
 20
-288.996634
 10
227.150965
 20
-287.814388
 10
227.367675
 20
-287.24901
 10
227.649713
 20
-286.716337
 10
227.992921
 20
-286.222872
 10
228.396524
 20
-285.770498
 10
229.348755
 20
-285.030523
  0
LWPOLYLINE
  5
1606
100
AcDbEntity
  8
VHH-025
100
AcDbPolyline
 90
        4
 70
     0
 43
0.0
 10
229.348755
 20
-285.030523
 10
229.933819
 20
-284.49754
 10
230.135828
 20
-284.155166
 10
230.266116
 20
-283.779169
  0
LWPOLYLINE
  5
1607
100
AcDbEntity
  8
VHH-025
100
AcDbPolyline
 90
        5
 70
     0
 43
0.0
 10
230.266116
 20
-283.779169
 10
232.432759
 20
-272.414283
 10
233.127448
 20
-266.669692
 10
233.377904
 20
-263.787633
 10
233.561668
 20
-260.900015
  0
LWPOLYLINE
  5
1608
100
AcDbEntity
  8
VHH-025
100
AcDbPolyline
 90
       17
 70
     0
 43
0.0
 10
229.61265
 20
-260.900015
 10
229.521887
 20
-262.77242
 10
229.411548
 20
-265.003756
 10
229.38099
 20
-265.612499
 10
229.377084
 20
-265.690074
 10
229.373689
 20
-265.757453
 10
229.367068
 20
-265.888712
 10
229.35381
 20
-266.151074
 10
229.300531
 20
-267.198443
 10
229.192701
 20
-269.283106
 10
229.138126
 20
-270.319492
 10
229.131273
 20
-270.448695
 10
229.125198
 20
-270.563054
 10
229.113186
 20
-270.788649
 10
229.088643
 20
-271.247437
 10
228.983316
 20
-273.183353
 10
228.734122
 20
-277.532428
  0
LINE
  5
1609
100
AcDbEntity
  8
VHH-025
100
AcDbLine
 10
233.561668
 20
-260.900015
 30
0.0
 11
237.389563
 21
-260.900015
 31
0.0
  0
LWPOLYLINE
  5
160A
100
AcDbEntity
  8
VHH-025
100
AcDbPolyline
 90
       17
 70
     0
 43
0.0
 10
258.320911
 20
-325.438479
 10
257.550282
 20
-325.22641
 10
257.181474
 20
-325.074418
 10
257.002242
 20
-324.987349
 10
256.826846
 20
-324.893077
 10
256.178172
 20
-324.454475
 10
255.878946
 20
-324.193879
 10
255.736696
 20
-324.053675
 10
255.667548
 20
-323.981158
 10
255.59977
 20
-323.907056
 10
255.133667
 20
-323.295042
 10
254.93269
 20
-322.952399
 10
254.841502
 20
-322.772391
 10
254.798397
 20
-322.680291
 10
254.777487
 20
-322.633727
 10
254.757014
 20
-322.586824
 10
254.375692
 20
-321.070264
  0
LWPOLYLINE
  5
160B
100
AcDbEntity
  8
VHH-025
100
AcDbPolyline
 90
       17
 70
     0
 43
0.0
 10
220.405609
 20
-321.070264
 10
220.267823
 20
-321.874136
 10
220.157241
 20
-322.242517
 10
220.093316
 20
-322.417734
 10
220.05941
 20
-322.50305
 10
220.041997
 20
-322.545131
 10
220.024287
 20
-322.586824
 10
219.64766
 20
-323.295
 10
219.424309
 20
-323.613517
 10
219.305169
 20
-323.763452
 10
219.24389
 20
-323.83605
 10
219.181531
 20
-323.907056
 10
218.603167
 20
-324.454445
 10
218.28635
 20
-324.687779
 10
218.122132
 20
-324.793976
 10
217.954456
 20
-324.893077
 10
216.46039
 20
-325.438479
  0
LWPOLYLINE
  5
160C
100
AcDbEntity
  8
VHH-025
100
AcDbPolyline
 90
       15
 70
     0
 43
0.0
 10
218.605404
 20
-320.781111
 10
218.530952
 20
-321.260797
 10
218.385102
 20
-321.7219
 10
218.337166
 20
-321.83412
 10
218.284986
 20
-321.943973
 10
218.168532
 20
-322.155477
 10
217.887238
 20
-322.545665
 10
217.806608
 20
-322.636219
 10
217.721881
 20
-322.72368
 10
217.543072
 20
-322.886265
 10
217.149568
 20
-323.161599
 10
217.043643
 20
-323.219949
 10
216.934635
 20
-323.273978
 10
216.71061
 20
-323.367359
 10
216.242877
 20
-323.494167
  0
LWPOLYLINE
  5
160D
100
AcDbEntity
  8
VHH-025
100
AcDbPolyline
 90
        7
 70
     0
 43
0.0
 10
222.833315
 20
-260.40696
 10
221.88575
 20
-275.404655
 10
220.865691
 20
-290.471847
 10
220.328227
 20
-298.03127
 10
220.052576
 20
-301.816758
 10
219.772364
 20
-305.604732
 10
218.605404
 20
-320.781111
  0
LWPOLYLINE
  5
160E
100
AcDbEntity
  8
VHH-025
100
AcDbPolyline
 90
        7
 70
     0
 43
0.0
 10
251.947987
 20
-260.40696
 10
252.895458
 20
-275.403101
 10
253.396583
 20
-282.930982
 10
253.653988
 20
-286.701732
 10
253.915955
 20
-290.476778
 10
255.010123
 20
-305.61892
 10
256.175897
 20
-320.781111
  0
CIRCLE
  5
160F
100
AcDbEntity
  8
VHH-025
100
AcDbCircle
 10
318.690695
 20
-312.007599
 30
0.0
 40
2.204139
  0
LWPOLYLINE
  5
1610
100
AcDbEntity
  8
VHH-025
100
AcDbPolyline
 90
        2
 70
     0
 43
0.0
 10
312.39065
 20
-330.232757
 10
312.39065
 20
-312.144755
  0
LWPOLYLINE
  5
1611
100
AcDbEntity
  8
VHH-025
100
AcDbPolyline
 90
        2
 70
     0
 43
0.0
 10
312.39065
 20
-330.076085
 10
312.39065
 20
-312.144755
  0
LWPOLYLINE
  5
1612
100
AcDbEntity
  8
VHH-025
100
AcDbPolyline
 90
       10
 70
     0
 43
0.0
 10
258.538424
 20
-323.494167
 10
271.822056
 20
-325.697682
 10
278.553796
 20
-326.673372
 10
281.941951
 20
-327.129681
 10
283.641571
 20
-327.34995
 10
284.492763
 20
-327.458113
 10
284.918703
 20
-327.511701
 10
285.13176
 20
-327.538372
 10
285.344873
 20
-327.564961
 10
312.39065
 20
-330.232757
  0
LWPOLYLINE
  5
1613
100
AcDbEntity
  8
VHH-025
100
AcDbPolyline
 90
       12
 70
     0
 43
0.0
 10
312.39065
 20
-312.144755
 10
312.514181
 20
-310.93351
 10
312.667521
 20
-310.343146
 10
312.88165
 20
-309.767589
 10
313.474989
 20
-308.704367
 10
313.853308
 20
-308.218877
 10
314.277006
 20
-307.776926
 10
315.249219
 20
-307.032866
 10
316.353461
 20
-306.501187
 10
316.941088
 20
-306.32249
 10
317.547793
 20
-306.204251
 10
318.77669
 20
-306.157187
  0
LWPOLYLINE
  5
1614
100
AcDbEntity
  8
VHH-025
100
AcDbPolyline
 90
        2
 70
     0
 43
0.0
 10
345.848858
 20
-307.22157
 10
318.77669
 20
-306.157187
  0
CIRCLE
  5
1615
100
AcDbEntity
  8
VHH-025
100
AcDbCircle
 10
423.808024
 20
-437.908683
 30
0.0
 40
2.75
  0
LWPOLYLINE
  5
1616
100
AcDbEntity
  8
VHH-025
100
AcDbPolyline
 90
       14
 70
     0
 43
0.0
 10
366.756208
 20
-471.922459
 10
365.117326
 20
-468.498183
 10
364.116002
 20
-465.590764
 10
363.340203
 20
-462.096069
 10
362.922869
 20
-457.943052
 10
362.996941
 20
-453.060672
 10
364.057134
 20
-444.785448
 10
364.466928
 20
-442.628664
 10
364.837051
 20
-441.006656
 10
365.454911
 20
-439.059619
 10
365.903979
 20
-438.329635
 10
366.177519
 20
-438.202002
 10
366.268804
 20
-438.067848
 10
366.177519
 20
-437.337625
  0
CIRCLE
  5
1617
100
AcDbEntity
  8
VHH-025
100
AcDbCircle
 10
390.971102
 20
-437.908683
 30
0.0
 40
2.75
  0
CIRCLE
  5
1618
100
AcDbEntity
  8
VHH-025
100
AcDbCircle
 10
372.863049
 20
-442.041728
 30
0.0
 40
2.75
  0
LINE
  5
1619
100
AcDbEntity
  8
VHH-025
100
AcDbLine
 10
467.228115
 20
-453.107827
 30
0.0
 11
467.228115
 21
-331.93891
 31
0.0
  0
LINE
  5
161A
100
AcDbEntity
  8
VHH-025
100
AcDbLine
 10
461.389564
 20
-471.110372
 30
0.0
 11
461.389564
 21
-332.27926
 31
0.0
  0
LINE
  5
161B
100
AcDbEntity
  8
VHH-025
100
AcDbLine
 10
466.896415
 20
-332.27061
 30
0.0
 11
466.896415
 21
-478.164668
 31
0.0
  0
LWPOLYLINE
  5
162F
100
AcDbEntity
  8
VHH-025
100
AcDbPolyline
 90
        9
 70
     0
 43
0.0
 10
352.395016
 20
-479.933962
 10
354.725534
 20
-479.832581
 10
357.038005
 20
-479.529399
 10
359.314499
 20
-479.026607
 10
361.537404
 20
-478.328227
 10
364.166922
 20
-477.088044
 10
366.164924
 20
-475.380745
 10
367.00976
 20
-473.4856
 10
366.756208
 20
-471.922459
  0
ARC
  5
1630
100
AcDbEntity
  8
VHH-025
100
AcDbCircle
 10
361.501122
 20
-456.289135
 30
0.0
 40
2.75
100
AcDbArc
 50
302.756594
 51
57.390996
  0
CIRCLE
  5
1631
100
AcDbEntity
  8
VHH-025
100
AcDbCircle
 10
407.389563
 20
-445.815397
 30
0.0
 40
2.75
  0
CIRCLE
  5
1632
100
AcDbEntity
  8
VHH-025
100
AcDbCircle
 10
382.912261
 20
-444.335395
 30
0.0
 40
2.75
  0
CIRCLE
  5
1633
100
AcDbEntity
  8
VHH-025
100
AcDbCircle
 10
374.442851
 20
-454.955699
 30
0.0
 40
2.75
  0
LWPOLYLINE
  5
1634
100
AcDbEntity
  8
VHH-025
100
AcDbPolyline
 90
        8
 70
   128
 43
0.0
 10
467.228115
 20
-453.107827
 10
467.228771
 20
-453.880851
 10
467.230723
 20
-454.62473
 10
467.233889
 20
-455.311416
 10
467.238158
 20
-455.915019
 10
467.243359
 20
-456.412783
 10
467.249304
 20
-456.785938
 10
467.255764
 20
-457.020417
  0
LWPOLYLINE
  5
1635
100
AcDbEntity
  8
VHH-025
100
AcDbPolyline
 90
        9
 70
   128
 43
0.0
 10
466.910459
 20
-480.211983
 10
466.897451
 20
-480.367789
 10
466.859304
 20
-480.519628
 10
466.796995
 20
-480.663633
 10
466.71211
 20
-480.796138
 10
466.606811
 20
-480.913764
 10
466.48378
 20
-481.013516
 10
466.346145
 20
-481.092861
 10
466.197424
 20
-481.149772
  0
LWPOLYLINE
  5
1636
100
AcDbEntity
  8
VHH-025
100
AcDbPolyline
 90
        5
 70
   128
 43
0.0
 10
466.896415
 20
-478.164668
 10
466.897473
 20
-478.880635
 10
466.900558
 20
-479.515745
 10
466.905229
 20
-479.979715
 10
466.910459
 20
-480.211983
  0
LWPOLYLINE
  5
1637
100
AcDbEntity
  8
VHH-025
100
AcDbPolyline
 90
        5
 70
   128
 43
0.0
 10
467.389562
 20
-491.515795
 10
467.331432
 20
-491.858723
 10
467.162647
 20
-492.162997
 10
466.904216
 20
-492.390307
 10
466.6714
 20
-492.494101
  0
LINE
  5
1638
100
AcDbEntity
  8
VHH-025
100
AcDbLine
 10
467.389562
 20
-460.279258
 30
0.0
 11
467.389562
 21
-491.515795
 31
0.0
  0
LINE
  5
1639
100
AcDbEntity
  8
VHH-025
100
AcDbLine
 10
466.910459
 20
-480.211983
 30
0.0
 11
467.389562
 21
-491.515795
 31
0.0
  0
LINE
  5
163A
100
AcDbEntity
  8
VHH-025
100
AcDbLine
 10
467.389562
 20
-460.279258
 30
0.0
 11
467.255764
 21
-457.020417
 31
0.0
  0
LWPOLYLINE
  5
163B
100
AcDbEntity
  8
VHH-025
100
AcDbPolyline
 90
       22
 70
     0
 43
0.0
 10
448.991915
 20
-349.704212
 10
448.278083
 20
-344.897253
 10
447.934185
 20
-342.177282
 10
447.765442
 20
-340.735432
 10
447.681866
 20
-339.993675
 10
447.640277
 20
-339.617543
 10
447.619533
 20
-339.428157
 10
447.598821
 20
-339.237889
 10
447.435854
 20
-337.699691
 10
447.357285
 20
-336.931169
 10
447.318739
 20
-336.546954
 10
447.299656
 20
-336.354717
 10
447.290163
 20
-336.258546
 10
447.280702
 20
-336.162332
 10
447.129116
 20
-334.551211
 10
447.055017
 20
-333.712936
 10
447.018393
 20
-333.285478
 10
447.000188
 20
-333.069648
 10
446.991113
 20
-332.961205
 10
446.986582
 20
-332.906851
 10
446.982055
 20
-332.852409
 10
446.460389
 20
-325.438479
  0
LWPOLYLINE
  5
163C
100
AcDbEntity
  8
VHH-025
100
AcDbPolyline
 90
        2
 70
     0
 43
0.0
 10
358.932442
 20
-331.217272
 10
386.00461
 20
-330.152889
  0
LWPOLYLINE
  5
163D
100
AcDbEntity
  8
VHH-025
100
AcDbPolyline
 90
        4
 70
     0
 43
0.0
 10
392.39065
 20
-330.232757
 10
392.39065
 20
-330.85648
 10
392.39065
 20
-331.436364
 10
392.39065
 20
-332.247411
  0
LWPOLYLINE
  5
163E
100
AcDbEntity
  8
VHH-025
100
AcDbPolyline
 90
        3
 70
     0
 43
0.0
 10
452.68513
 20
-345.242635
 10
455.482316
 20
-310.20501
 10
456.930269
 20
-288.996634
  0
LWPOLYLINE
  5
163F
100
AcDbEntity
  8
VHH-025
100
AcDbPolyline
 90
        3
 70
     0
 43
0.0
 10
423.395654
 20
-370.194776
 10
425.376359
 20
-369.869575
 10
447.972061
 20
-364.642158
  0
LWPOLYLINE
  5
1640
100
AcDbEntity
  8
VHH-025
100
AcDbPolyline
 90
        5
 70
     0
 43
0.0
 10
375.84608
 20
-378.259114
 10
376.926188
 20
-378.223874
 10
401.305677
 20
-375.83248
 10
425.376359
 20
-371.880444
 10
447.834774
 20
-366.653027
  0
ARC
  5
1641
100
AcDbEntity
  8
VHH-025
100
AcDbCircle
 10
419.376223
 20
-339.699307
 30
0.0
 40
22.0
100
AcDbArc
 50
236.88527
 51
324.739363
  0
ARC
  5
1642
100
AcDbEntity
  8
VHH-025
100
AcDbCircle
 10
419.376223
 20
-339.699307
 30
0.0
 40
21.0
100
AcDbArc
 50
239.960911
 51
321.579203
  0
LWPOLYLINE
  5
1643
100
AcDbEntity
  8
VHH-025
100
AcDbPolyline
 90
       11
 70
   128
 43
0.0
 10
373.125986
 20
-385.709295
 10
371.723204
 20
-386.532612
 10
370.287732
 20
-387.296825
 10
368.811686
 20
-388.005407
 10
367.307316
 20
-388.651898
 10
365.743806
 20
-389.247175
 10
364.155902
 20
-389.775758
 10
362.534381
 20
-390.239874
 10
360.893659
 20
-390.634648
 10
358.944678
 20
-391.008967
 10
356.972887
 20
-391.286062
  0
ARC
  5
1644
100
AcDbEntity
  8
VHH-025
100
AcDbCircle
 10
352.395016
 20
-352.364719
 30
0.0
 40
40.0
100
AcDbArc
 50
277.114746
 51
302.292345
  0
LWPOLYLINE
  5
1645
100
AcDbEntity
  8
VHH-025
100
AcDbPolyline
 90
        2
 70
     0
 43
0.0
 10
352.39065
 20
-331.272172
 10
358.932442
 20
-331.217272
  0
LWPOLYLINE
  5
1646
100
AcDbEntity
  8
VHH-025
100
AcDbPolyline
 90
        3
 70
   128
 43
0.0
 10
348.021494
 20
-392.339833
 10
347.754649
 20
-392.150011
 10
347.440741
 20
-392.056724
  0
LWPOLYLINE
  5
1647
100
AcDbEntity
  8
VHH-025
100
AcDbPolyline
 90
        3
 70
   128
 43
0.0
 10
348.435965
 20
-391.597774
 10
348.15521
 20
-391.386468
 10
347.817145
 20
-391.286062
  0
LWPOLYLINE
  5
1648
100
AcDbEntity
  8
VHH-025
100
AcDbPolyline
 90
        3
 70
   128
 43
0.0
 10
356.972887
 20
-391.286062
 10
356.637297
 20
-391.385223
 10
356.354066
 20
-391.597774
  0
LWPOLYLINE
  5
1649
100
AcDbEntity
  8
VHH-025
100
AcDbPolyline
 90
        6
 70
   128
 43
0.0
 10
356.354066
 20
-391.597774
 10
355.693999
 20
-392.201876
 10
354.920027
 20
-392.700603
 10
354.097137
 20
-393.052116
 10
353.201622
 20
-393.266553
 10
352.395016
 20
-393.326647
  0
LWPOLYLINE
  5
164A
100
AcDbEntity
  8
VHH-025
100
AcDbPolyline
 90
        6
 70
   128
 43
0.0
 10
352.395016
 20
-393.326647
 10
351.503095
 20
-393.253004
 10
350.611174
 20
-393.024254
 10
349.794075
 20
-392.659628
 10
349.028252
 20
-392.148619
 10
348.435965
 20
-391.597774
  0
LWPOLYLINE
  5
164B
100
AcDbEntity
  8
VHH-025
100
AcDbPolyline
 90
        3
 70
   128
 43
0.0
 10
357.34929
 20
-392.056724
 10
357.035385
 20
-392.150009
 10
356.768537
 20
-392.339833
  0
ARC
  5
164C
100
AcDbEntity
  8
VHH-025
100
AcDbCircle
 10
352.395016
 20
-387.945255
 30
0.0
 40
6.2
100
AcDbArc
 50
270.0
 51
314.862411
  0
ARC
  5
164D
100
AcDbEntity
  8
VHH-025
100
AcDbCircle
 10
352.395016
 20
-387.945255
 30
0.0
 40
6.2
100
AcDbArc
 50
225.137589
 51
270.0
  0
LWPOLYLINE
  5
164E
100
AcDbEntity
  8
VHH-025
100
AcDbPolyline
 90
        5
 70
     0
 43
0.0
 10
392.39065
 20
-332.247411
 10
392.39065
 20
-338.773612
 10
392.39065
 20
-344.743865
 10
392.39065
 20
-350.166704
 10
392.39065
 20
-355.058505
  0
LWPOLYLINE
  5
164F
100
AcDbEntity
  8
VHH-025
100
AcDbPolyline
 90
        6
 70
   128
 43
0.0
 10
377.929119
 20
-361.412619
 10
377.879108
 20
-362.575773
 10
377.815206
 20
-363.859325
 10
377.754283
 20
-364.953429
 10
377.691639
 20
-365.9982
 10
377.629972
 20
-366.978384
  0
LWPOLYLINE
  5
1650
100
AcDbEntity
  8
VHH-025
100
AcDbPolyline
 90
       11
 70
     0
 43
0.0
 10
392.39065
 20
-355.058505
 10
392.245753
 20
-355.470794
 10
392.066009
 20
-355.681073
 10
391.814472
 20
-355.893376
 10
391.116238
 20
-356.307649
 10
390.168825
 20
-356.702464
 10
389.018031
 20
-357.058395
 10
388.371579
 20
-357.219786
 10
387.693638
 20
-357.365956
 10
386.255137
 20
-357.610743
 10
384.738566
 20
-357.785829
  0
LWPOLYLINE
  5
1651
100
AcDbEntity
  8
VHH-025
100
AcDbPolyline
 90
        3
 70
   128
 43
0.0
 10
374.610399
 20
-385.064296
 10
374.290873
 20
-385.694066
 10
373.764592
 20
-386.178048
  0
LWPOLYLINE
  5
1652
100
AcDbEntity
  8
VHH-025
100
AcDbPolyline
 90
        4
 70
   128
 43
0.0
 10
373.987689
 20
-384.58332
 10
373.691627
 20
-385.183431
 10
373.213849
 20
-385.65165
 10
373.125986
 20
-385.709295
  0
LWPOLYLINE
  5
1653
100
AcDbEntity
  8
VHH-025
100
AcDbPolyline
 90
        6
 70
   128
 43
0.0
 10
375.88665
 20
-378.015413
 10
375.834643
 20
-378.327817
 10
375.794603
 20
-378.595244
 10
375.768282
 20
-378.815499
 10
375.76061
 20
-378.96326
 10
375.767595
 20
-379.016961
  0
LWPOLYLINE
  5
1654
100
AcDbEntity
  8
VHH-025
100
AcDbPolyline
 90
        6
 70
   128
 43
0.0
 10
375.88665
 20
-378.015413
 10
375.958049
 20
-377.613675
 10
376.043123
 20
-377.155803
 10
376.134437
 20
-376.678784
 10
376.233877
 20
-376.170624
 10
376.262057
 20
-376.028376
  0
LWPOLYLINE
  5
1655
100
AcDbEntity
  8
VHH-025
100
AcDbPolyline
 90
        3
 70
   128
 43
0.0
 10
375.697038
 20
-377.973729
 10
374.90284
 20
-381.291857
 10
373.987689
 20
-384.58332
  0
LWPOLYLINE
  5
1656
100
AcDbEntity
  8
VHH-025
100
AcDbPolyline
 90
        5
 70
   128
 43
0.0
 10
377.897917
 20
-361.41568
 10
377.639807
 20
-365.308441
 10
377.177053
 20
-369.535891
 10
376.528098
 20
-373.770787
 10
375.697038
 20
-377.973729
  0
ARC
  5
1657
100
AcDbEntity
  8
VHH-025
100
AcDbCircle
 10
278.743345
 20
-356.659943
 30
0.0
 40
99.423514
100
AcDbArc
 50
348.766529
 51
354.042963
  0
ARC
  5
1658
100
AcDbEntity
  8
VHH-025
100
AcDbCircle
 10
283.626737
 20
-357.733482
 30
0.0
 40
95.0
100
AcDbArc
 50
343.280124
 51
346.606068
  0
LINE
  5
1659
100
AcDbEntity
  8
VHH-025
100
AcDbLine
 10
375.767595
 20
-379.016961
 30
0.0
 11
376.042777
 21
-379.739745
 31
0.0
  0
ARC
  5
165A
100
AcDbEntity
  8
VHH-025
100
AcDbCircle
 10
352.395016
 20
-434.608182
 30
0.0
 40
16.0
100
AcDbArc
 50
21.253809
 51
90.0
  0
ARC
  5
165B
100
AcDbEntity
  8
VHH-025
100
AcDbCircle
 10
368.808024
 20
-424.275503
 30
0.0
 40
2.75
100
AcDbArc
 50
262.476558
 51
83.523442
  0
CIRCLE
  5
165C
100
AcDbEntity
  8
VHH-025
100
AcDbCircle
 10
407.389563
 20
-424.815397
 30
0.0
 40
6.25
  0
CIRCLE
  5
165D
100
AcDbEntity
  8
VHH-025
100
AcDbCircle
 10
419.576162
 20
-427.596909
 30
0.0
 40
2.75
  0
LINE
  5
165E
100
AcDbEntity
  8
VHH-025
100
AcDbLine
 10
368.22617
 20
-428.808182
 30
0.0
 11
367.306756
 21
-428.808182
 31
0.0
  0
LWPOLYLINE
  5
165F
100
AcDbEntity
  8
VHH-025
100
AcDbPolyline
 90
        9
 70
     0
 43
0.0
 10
361.803161
 20
-427.265796
 10
362.15787
 20
-427.265054
 10
362.052534
 20
-427.266103
 10
361.532633
 20
-427.266255
 10
360.585206
 20
-427.265802
 10
359.182994
 20
-427.265592
 10
357.299983
 20
-427.265745
 10
354.961253
 20
-427.26606
 10
352.395016
 20
-427.265796
  0
LWPOLYLINE
  5
1660
100
AcDbEntity
  8
VHH-025
100
AcDbPolyline
 90
        6
 70
     0
 43
0.0
 10
366.177519
 20
-437.337625
 10
365.91182
 20
-434.648849
 10
365.128388
 20
-432.063289
 10
363.854019
 20
-429.681
 10
362.140717
 20
-427.591923
 10
361.803161
 20
-427.265796
  0
LWPOLYLINE
  5
1661
100
AcDbEntity
  8
VHH-025
100
AcDbPolyline
 90
        6
 70
     0
 43
0.0
 10
362.172574
 20
-427.265841
 10
363.62638
 20
-428.984675
 10
364.539658
 20
-430.441283
 10
365.940955
 20
-434.199752
 10
366.24074
 20
-436.239798
 10
366.268364
 20
-438.089665
  0
CIRCLE
  5
1662
100
AcDbEntity
  8
VHH-025
100
AcDbCircle
 10
395.202964
 20
-427.596909
 30
0.0
 40
2.75
  0
CIRCLE
  5
1663
100
AcDbEntity
  8
VHH-025
100
AcDbCircle
 10
379.889563
 20
-431.092093
 30
0.0
 40
2.75
  0
CIRCLE
  5
1664
100
AcDbEntity
  8
VHH-025
100
AcDbCircle
 10
401.966017
 20
-436.077508
 30
0.0
 40
2.75
  0
CIRCLE
  5
1665
100
AcDbEntity
  8
VHH-025
100
AcDbCircle
 10
412.81311
 20
-436.077508
 30
0.0
 40
2.75
  0
CIRCLE
  5
1666
100
AcDbEntity
  8
VHH-025
100
AcDbCircle
 10
417.162457
 20
-417.021775
 30
0.0
 40
2.75
  0
CIRCLE
  5
1667
100
AcDbEntity
  8
VHH-025
100
AcDbCircle
 10
427.863049
 20
-420.142458
 30
0.0
 40
2.75
  0
CIRCLE
  5
1668
100
AcDbEntity
  8
VHH-025
100
AcDbCircle
 10
407.389563
 20
-412.315397
 30
0.0
 40
2.75
  0
CIRCLE
  5
1669
100
AcDbEntity
  8
VHH-025
100
AcDbCircle
 10
397.61667
 20
-417.021775
 30
0.0
 40
2.75
  0
CIRCLE
  5
166A
100
AcDbEntity
  8
VHH-025
100
AcDbCircle
 10
376.866866
 20
-417.848791
 30
0.0
 40
2.75
  0
CIRCLE
  5
166B
100
AcDbEntity
  8
VHH-025
100
AcDbCircle
 10
386.916077
 20
-420.142458
 30
0.0
 40
2.75
  0
LINE
  5
166C
100
AcDbEntity
  8
VHH-025
100
AcDbLine
 10
367.706402
 20
-428.808182
 30
0.0
 11
372.572152
 21
-386.90286
 31
0.0
  0
LINE
  5
166D
100
AcDbEntity
  8
VHH-025
100
AcDbLine
 10
368.22617
 20
-428.808182
 30
0.0
 11
373.435206
 21
-386.383984
 31
0.0
  0
CIRCLE
  5
166E
100
AcDbEntity
  8
VHH-025
100
AcDbCircle
 10
416.501122
 20
-405.895051
 30
0.0
 40
2.75
  0
CIRCLE
  5
166F
100
AcDbEntity
  8
VHH-025
100
AcDbCircle
 10
398.278005
 20
-405.895051
 30
0.0
 40
2.75
  0
LINE
  5
1670
100
AcDbEntity
  8
VHH-025
100
AcDbLine
 10
453.742339
 20
-332.0
 30
0.0
 11
469.387388
 21
-332.0
 31
0.0
  0
LWPOLYLINE
  5
1671
100
AcDbEntity
  8
VHH-025
100
AcDbPolyline
 90
        2
 70
     0
 43
0.0
 10
451.527989
 20
-362.191451
 10
452.68513
 20
-345.242635
  0
LWPOLYLINE
  5
1672
100
AcDbEntity
  8
VHH-025
100
AcDbPolyline
 90
        8
 70
     0
 43
0.0
 10
447.834774
 20
-366.653027
 10
449.237324
 20
-366.03232
 10
449.851047
 20
-365.564651
 10
450.382765
 20
-365.010884
 10
450.826566
 20
-364.378595
 10
451.167554
 20
-363.691312
 10
451.403912
 20
-362.954734
 10
451.527989
 20
-362.191451
  0
LWPOLYLINE
  5
1673
100
AcDbEntity
  8
VHH-025
100
AcDbPolyline
 90
        8
 70
     0
 43
0.0
 10
447.972061
 20
-364.642158
 10
449.374611
 20
-364.021451
 10
449.988334
 20
-363.553782
 10
450.520052
 20
-363.000015
 10
450.963854
 20
-362.367726
 10
451.304841
 20
-361.680443
 10
451.541199
 20
-360.943865
 10
451.665276
 20
-360.180582
  0
LWPOLYLINE
  5
1674
100
AcDbEntity
  8
VHH-025
100
AcDbPolyline
 90
        8
 70
     0
 43
0.0
 10
448.991915
 20
-349.704212
 10
450.394465
 20
-349.083505
 10
451.008188
 20
-348.615836
 10
451.539906
 20
-348.062068
 10
451.983707
 20
-347.429779
 10
452.324695
 20
-346.742497
 10
452.561053
 20
-346.005918
 10
452.68513
 20
-345.242635
  0
LWPOLYLINE
  5
1675
100
AcDbEntity
  8
VHH-025
100
AcDbPolyline
 90
        7
 70
     0
 43
0.0
 10
446.242876
 20
-323.494167
 10
432.771037
 20
-325.726136
 10
419.234054
 20
-327.590127
 10
405.632534
 20
-329.099371
 10
398.807693
 20
-329.724161
 10
395.389428
 20
-330.004519
 10
392.39065
 20
-330.232757
  0
CIRCLE
  5
1676
100
AcDbEntity
  8
VHH-025
100
AcDbCircle
 10
386.086256
 20
-312.007599
 30
0.0
 40
2.204139
  0
LWPOLYLINE
  5
1677
100
AcDbEntity
  8
VHH-025
100
AcDbPolyline
 90
        2
 70
     0
 43
0.0
 10
392.39065
 20
-312.144755
 10
392.39065
 20
-330.232757
  0
LWPOLYLINE
  5
1678
100
AcDbEntity
  8
VHH-025
100
AcDbPolyline
 90
        2
 70
     0
 43
0.0
 10
392.39065
 20
-330.076085
 10
392.39065
 20
-312.144755
  0
LWPOLYLINE
  5
1679
100
AcDbEntity
  8
VHH-025
100
AcDbPolyline
 90
        2
 70
     0
 43
0.0
 10
358.932442
 20
-307.22157
 10
386.00461
 20
-306.157187
  0
LWPOLYLINE
  5
167A
100
AcDbEntity
  8
VHH-025
100
AcDbPolyline
 90
        2
 70
     0
 43
0.0
 10
352.39065
 20
-307.276471
 10
358.932442
 20
-307.22157
  0
LWPOLYLINE
  5
167B
100
AcDbEntity
  8
VHH-025
100
AcDbPolyline
 90
       11
 70
     0
 43
0.0
 10
386.00461
 20
-306.157187
 10
387.229888
 20
-306.203739
 10
387.833003
 20
-306.3207
 10
388.423963
 20
-306.49979
 10
389.526532
 20
-307.02946
 10
390.035359
 20
-307.378615
 10
390.501987
 20
-307.774755
 10
391.303303
 20
-308.700072
 10
391.898236
 20
-309.764314
 10
392.266598
 20
-310.930986
 10
392.39065
 20
-312.144755
  0
LWPOLYLINE
  5
167C
100
AcDbEntity
  8
VHH-025
100
AcDbPolyline
 90
        2
 70
     0
 43
0.0
 10
457.574706
 20
-260.900015
 10
455.28896
 20
-260.900015
  0
LWPOLYLINE
  5
167D
100
AcDbEntity
  8
VHH-025
100
AcDbPolyline
 90
        3
 70
     0
 43
0.0
 10
463.561667
 20
-260.900015
 10
462.503308
 20
-260.900015
 10
460.281426
 20
-260.900015
  0
LWPOLYLINE
  5
167E
100
AcDbEntity
  8
VHH-025
100
AcDbPolyline
 90
        5
 70
     0
 43
0.0
 10
459.612649
 20
-260.900015
 10
458.795675
 20
-260.900015
 10
458.167932
 20
-260.900015
 10
457.753455
 20
-260.900015
 10
457.574706
 20
-260.900015
  0
LWPOLYLINE
  5
167F
100
AcDbEntity
  8
VHH-025
100
AcDbPolyline
 90
        3
 70
     0
 43
0.0
 10
460.281426
 20
-260.900015
 10
460.005861
 20
-260.900015
 10
459.612649
 20
-260.900015
  0
LWPOLYLINE
  5
1680
100
AcDbEntity
  8
VHH-025
100
AcDbPolyline
 90
        7
 70
     0
 43
0.0
 10
456.930269
 20
-288.996634
 10
457.150964
 20
-287.814388
 10
457.367674
 20
-287.24901
 10
457.649712
 20
-286.716337
 10
457.99292
 20
-286.222872
 10
458.396523
 20
-285.770498
 10
459.348754
 20
-285.030523
  0
LWPOLYLINE
  5
1681
100
AcDbEntity
  8
VHH-025
100
AcDbPolyline
 90
        4
 70
     0
 43
0.0
 10
459.348754
 20
-285.030523
 10
459.933818
 20
-284.49754
 10
460.135827
 20
-284.155166
 10
460.266115
 20
-283.779169
  0
LWPOLYLINE
  5
1682
100
AcDbEntity
  8
VHH-025
100
AcDbPolyline
 90
        5
 70
     0
 43
0.0
 10
460.266115
 20
-283.779169
 10
462.432758
 20
-272.414283
 10
463.127447
 20
-266.669692
 10
463.377903
 20
-263.787633
 10
463.561667
 20
-260.900015
  0
LWPOLYLINE
  5
1683
100
AcDbEntity
  8
VHH-025
100
AcDbPolyline
 90
       17
 70
     0
 43
0.0
 10
459.612649
 20
-260.900015
 10
459.521886
 20
-262.77242
 10
459.411547
 20
-265.003756
 10
459.380989
 20
-265.612499
 10
459.377083
 20
-265.690074
 10
459.373688
 20
-265.757453
 10
459.367067
 20
-265.888712
 10
459.353808
 20
-266.151074
 10
459.30053
 20
-267.198443
 10
459.1927
 20
-269.283106
 10
459.138125
 20
-270.319492
 10
459.131272
 20
-270.448695
 10
459.125196
 20
-270.563054
 10
459.113184
 20
-270.788649
 10
459.088642
 20
-271.247437
 10
458.983314
 20
-273.183353
 10
458.734121
 20
-277.532428
  0
ARC
  5
1684
100
AcDbEntity
  8
VHH-025
100
AcDbCircle
 10
471.793167
 20
-292.24681
 30
0.0
 40
2.0
100
AcDbArc
 50
13.023817
 51
66.202274
  0
LINE
  5
1685
100
AcDbEntity
  8
VHH-025
100
AcDbLine
 10
472.600184
 20
-290.416858
 30
0.0
 11
469.387388
 21
-288.999998
 31
0.0
  0
LINE
  5
1686
100
AcDbEntity
  8
VHH-025
100
AcDbLine
 10
463.561667
 20
-260.900015
 30
0.0
 11
467.389562
 21
-260.900015
 31
0.0
  0
LWPOLYLINE
  5
1687
100
AcDbEntity
  8
VHH-025
100
AcDbPolyline
 90
       17
 70
     0
 43
0.0
 10
450.405608
 20
-321.070264
 10
450.267822
 20
-321.874136
 10
450.15724
 20
-322.242517
 10
450.093314
 20
-322.417734
 10
450.059408
 20
-322.50305
 10
450.041996
 20
-322.545131
 10
450.024286
 20
-322.586824
 10
449.647659
 20
-323.295
 10
449.424308
 20
-323.613517
 10
449.305168
 20
-323.763452
 10
449.243889
 20
-323.83605
 10
449.18153
 20
-323.907056
 10
448.603166
 20
-324.454445
 10
448.286349
 20
-324.687779
 10
448.12213
 20
-324.793976
 10
447.954454
 20
-324.893077
 10
446.460389
 20
-325.438479
  0
LWPOLYLINE
  5
1688
100
AcDbEntity
  8
VHH-025
100
AcDbPolyline
 90
       15
 70
     0
 43
0.0
 10
448.605403
 20
-320.781111
 10
448.530951
 20
-321.260797
 10
448.385101
 20
-321.7219
 10
448.337165
 20
-321.83412
 10
448.284985
 20
-321.943973
 10
448.168531
 20
-322.155477
 10
447.887237
 20
-322.545665
 10
447.806607
 20
-322.636219
 10
447.72188
 20
-322.72368
 10
447.543071
 20
-322.886265
 10
447.149567
 20
-323.161599
 10
447.043642
 20
-323.219949
 10
446.934634
 20
-323.273978
 10
446.710609
 20
-323.367359
 10
446.242876
 20
-323.494167
  0
LINE
  5
1689
100
AcDbEntity
  8
VHH-025
100
AcDbLine
 10
472.600184
 20
-317.583142
 30
0.0
 11
469.387388
 21
-319.000002
 31
0.0
  0
ARC
  5
168A
100
AcDbEntity
  8
VHH-025
100
AcDbCircle
 10
471.793167
 20
-315.75319
 30
0.0
 40
2.0
100
AcDbArc
 50
293.797726
 51
346.976183
  0
ELLIPSE
  5
168B
100
AcDbEntity
  8
VHH-025
100
AcDbEllipse
 10
472.300029
 20
-304.0
 30
0.0
 11
0.0000000000000028
 21
15.00000158390139
 31
0.0
210
0.0
220
0.0
230
1.0
 40
0.165303
 41
3.762083072775144
 42
5.662694887994181
  0
LWPOLYLINE
  5
168C
100
AcDbEntity
  8
VHH-025
100
AcDbPolyline
 90
        7
 70
     0
 43
0.0
 10
452.833313
 20
-260.40696
 10
451.885749
 20
-275.404655
 10
450.86569
 20
-290.471847
 10
450.328226
 20
-298.03127
 10
450.052575
 20
-301.816758
 10
449.772363
 20
-305.604732
 10
448.605403
 20
-320.781111
  0
LWPOLYLINE
  5
168E
100
AcDbEntity
  8
VHH-025
100
AcDbPolyline
 90
        4
 70
     0
 43
0.0
 10
339.644586
 20
-213.039073
 10
342.858347
 20
-213.039061
 10
346.072109
 20
-213.039025
 10
352.39065
 20
-213.038884
  0
CIRCLE
  5
168F
100
AcDbEntity
  8
VHH-025
100
AcDbCircle
 10
352.389563
 20
-60.0
 30
0.0
 40
12.0
  0
CIRCLE
  5
1690
100
AcDbEntity
  8
VHH-025
100
AcDbCircle
 10
352.389563
 20
-60.0
 30
0.0
 40
10.0
  0
LINE
  5
1691
100
AcDbEntity
  8
VHH-025
100
AcDbLine
 10
235.391738
 20
0.0
 30
0.0
 11
469.387388
 21
0.0
 31
0.0
  0
LWPOLYLINE
  5
1692
100
AcDbEntity
  8
VHH-025
100
AcDbPolyline
 90
        2
 70
     0
 43
0.0
 10
312.889563
 20
-10.785337
 10
352.389563
 20
-10.665356
  0
LWPOLYLINE
  5
1693
100
AcDbEntity
  8
VHH-025
100
AcDbPolyline
 90
        2
 70
     0
 43
0.0
 10
352.389563
 20
-19.665356
 10
312.889563
 20
-19.545375
  0
INSERT
  5
1694
100
AcDbEntity
  8
VHH-050
100
AcDbBlockReference
  2
A$C7A7B4A19
 10
159.083529
 20
-5.677671
 30
0.0
 41
-1.0
 50
270.0
  0
LINE
  5
1695
100
AcDbEntity
  8
VHH-025
100
AcDbLine
 10
25.489564
 20
-218.158028
 30
0.0
 11
25.489564
 21
0.0
 31
0.0
  0
LINE
  5
1696
100
AcDbEntity
  8
VHH-025
100
AcDbLine
 10
255.489563
 20
-218.158028
 30
0.0
 11
255.489563
 21
0.0
 31
0.0
  0
LINE
  5
1697
100
AcDbEntity
  8
VHH-025
100
AcDbLine
 10
219.289563
 20
-218.158028
 30
0.0
 11
219.289563
 21
0.0
 31
0.0
  0
LWPOLYLINE
  5
1698
100
AcDbEntity
  8
VHH-025
100
AcDbPolyline
 90
        2
 70
     0
 43
0.0
 10
162.889564
 20
-10.791485
 10
208.405073
 20
-11.233013
  0
LWPOLYLINE
  5
1699
100
AcDbEntity
  8
VHH-025
100
AcDbPolyline
 90
        2
 70
     0
 43
0.0
 10
208.405073
 20
-19.097699
 10
162.889564
 20
-19.539228
  0
LWPOLYLINE
  5
169A
100
AcDbEntity
  8
VHH-025
100
AcDbPolyline
 90
        2
 70
     0
 43
0.0
 10
135.136716
 20
-213.039073
 10
218.790651
 20
-213.031032
  0
LWPOLYLINE
  5
169B
100
AcDbEntity
  8
VHH-025
100
AcDbPolyline
 90
        2
 70
     0
 43
0.0
 10
25.990651
 20
-213.031032
 10
109.644587
 20
-213.039073
  0
LWPOLYLINE
  5
169C
100
AcDbEntity
  8
VHH-025
100
AcDbPolyline
 90
        5
 70
     0
 43
0.0
 10
17.26168
 20
-218.158028
 10
17.487768
 20
-218.158028
 10
17.93374
 20
-218.158028
 10
18.552887
 20
-218.158028
 10
19.269612
 20
-218.158028
  0
LWPOLYLINE
  5
169D
100
AcDbEntity
  8
VHH-025
100
AcDbPolyline
 90
        2
 70
     0
 43
0.0
 10
17.26168
 20
-218.158028
 10
17.287754
 20
-218.833978
  0
LWPOLYLINE
  5
169E
100
AcDbEntity
  8
VHH-025
100
AcDbPolyline
 90
        3
 70
     0
 43
0.0
 10
19.269612
 20
-218.158028
 10
22.999606
 20
-218.158028
 10
25.990651
 20
-218.158028
  0
LWPOLYLINE
  5
169F
100
AcDbEntity
  8
VHH-025
100
AcDbPolyline
 90
        2
 70
     0
 43
0.0
 10
25.990651
 20
-213.031032
 10
25.990651
 20
-218.158028
  0
LWPOLYLINE
  5
16A0
100
AcDbEntity
  8
VHH-025
100
AcDbPolyline
 90
        4
 70
     0
 43
0.0
 10
122.390651
 20
-213.038884
 10
125.604413
 20
-213.038968
 10
128.818175
 20
-213.039027
 10
135.136716
 20
-213.039073
  0
LWPOLYLINE
  5
16A1
100
AcDbEntity
  8
VHH-025
100
AcDbPolyline
 90
        4
 70
     0
 43
0.0
 10
109.644587
 20
-213.039073
 10
112.858349
 20
-213.039061
 10
116.072111
 20
-213.039025
 10
122.390651
 20
-213.038884
  0
LWPOLYLINE
  5
16A2
100
AcDbEntity
  8
VHH-025
100
AcDbPolyline
 90
        2
 70
     0
 43
0.0
 10
82.889564
 20
-10.785337
 10
122.389564
 20
-10.665356
  0
LWPOLYLINE
  5
16A3
100
AcDbEntity
  8
VHH-025
100
AcDbPolyline
 90
        2
 70
     0
 43
0.0
 10
122.389564
 20
-19.665356
 10
82.889564
 20
-19.545375
  0
LWPOLYLINE
  5
16A4
100
AcDbEntity
  8
VHH-025
100
AcDbPolyline
 90
        2
 70
     0
 43
0.0
 10
82.889564
 20
-18.142877
 10
82.889564
 20
-19.545375
  0
LWPOLYLINE
  5
16A5
100
AcDbEntity
  8
VHH-025
100
AcDbPolyline
 90
        2
 70
     0
 43
0.0
 10
81.889564
 20
-19.539228
 10
81.889564
 20
-18.142877
  0
LWPOLYLINE
  5
16A6
100
AcDbEntity
  8
VHH-025
100
AcDbPolyline
 90
        2
 70
     0
 43
0.0
 10
82.889564
 20
-10.785337
 10
82.889564
 20
-12.187836
  0
LWPOLYLINE
  5
16A7
100
AcDbEntity
  8
VHH-025
100
AcDbPolyline
 90
        2
 70
     0
 43
0.0
 10
81.889564
 20
-12.187836
 10
81.889564
 20
-10.791485
  0
LWPOLYLINE
  5
16A8
100
AcDbEntity
  8
VHH-025
100
AcDbPolyline
 90
       17
 70
     0
 43
0.0
 10
82.889564
 20
-12.187836
 10
82.889564
 20
-12.223046
 10
82.889564
 20
-12.393918
 10
82.889564
 20
-12.671252
 10
82.889564
 20
-13.044528
 10
82.889564
 20
-13.499101
 10
82.889564
 20
-14.017787
 10
82.889564
 20
-14.580316
 10
82.889564
 20
-15.165356
 10
82.889564
 20
-15.750397
 10
82.889564
 20
-16.312926
 10
82.889564
 20
-16.831612
 10
82.889564
 20
-17.286185
 10
82.889564
 20
-17.659461
 10
82.889564
 20
-17.936795
 10
82.889564
 20
-18.107666
 10
82.889564
 20
-18.142877
  0
LWPOLYLINE
  5
16A9
100
AcDbEntity
  8
VHH-025
100
AcDbPolyline
 90
       17
 70
     0
 43
0.0
 10
81.889564
 20
-18.142877
 10
81.889564
 20
-18.107664
 10
81.889564
 20
-17.936785
 10
81.889564
 20
-17.659445
 10
81.889564
 20
-17.28616
 10
81.889564
 20
-16.831589
 10
81.889564
 20
-16.312901
 10
81.889564
 20
-15.750385
 10
81.889564
 20
-15.165356
 10
81.889564
 20
-14.580328
 10
81.889564
 20
-14.017812
 10
81.889564
 20
-13.499124
 10
81.889564
 20
-13.044553
 10
81.889564
 20
-12.671268
 10
81.889564
 20
-12.393928
 10
81.889564
 20
-12.223049
 10
81.889564
 20
-12.187836
  0
LINE
  5
16AA
100
AcDbEntity
  8
VHH-025
100
AcDbLine
 10
81.889564
 20
-11.285356
 30
0.0
 11
82.889564
 21
-11.285356
 31
0.0
  0
LINE
  5
16AB
100
AcDbEntity
  8
VHH-025
100
AcDbLine
 10
82.889564
 20
-19.045356
 30
0.0
 11
81.889564
 21
-19.045356
 31
0.0
  0
ELLIPSE
  5
16AC
100
AcDbEntity
  8
VHH-025
100
AcDbEllipse
 10
2.479098
 20
-28.0
 30
0.0
 11
0.0000000000000028
 21
15.00000158390139
 31
0.0
210
0.0
220
0.0
230
-1.0
 40
0.165303
 41
3.762083072775144
 42
5.662694887994181
  0
ARC
  5
16AD
100
AcDbEntity
  8
VHH-025
100
AcDbCircle
 10
2.98596
 20
-16.24681
 30
0.0
 40
2.0
100
AcDbArc
 50
113.797726
 51
166.976183
  0
LINE
  5
16AE
100
AcDbEntity
  8
VHH-025
100
AcDbLine
 10
2.178942
 20
-14.416858
 30
0.0
 11
5.391739
 21
-12.999998
 31
0.0
  0
ARC
  5
16AF
100
AcDbEntity
  8
VHH-025
100
AcDbCircle
 10
2.98596
 20
-39.75319
 30
0.0
 40
2.0
100
AcDbArc
 50
193.023817
 51
246.202274
  0
LINE
  5
16B0
100
AcDbEntity
  8
VHH-025
100
AcDbLine
 10
2.178942
 20
-41.583142
 30
0.0
 11
5.391739
 21
-43.000002
 31
0.0
  0
LWPOLYLINE
  5
16B1
100
AcDbEntity
  8
VHH-025
100
AcDbPolyline
 90
        5
 70
     0
 43
0.0
 10
34.889564
 20
-17.633427
 10
34.999585
 20
-18.188349
 10
35.308753
 20
-18.652775
 10
35.779585
 20
-18.972359
 10
36.374055
 20
-19.097699
  0
LWPOLYLINE
  5
16B2
100
AcDbEntity
  8
VHH-025
100
AcDbPolyline
 90
        5
 70
     0
 43
0.0
 10
36.374055
 20
-11.233013
 10
35.775416
 20
-11.360151
 10
35.294543
 20
-11.692476
 10
34.990017
 20
-12.166053
 10
34.889564
 20
-12.697285
  0
LINE
  5
16B3
100
AcDbEntity
  8
VHH-025
100
AcDbLine
 10
34.889564
 20
-12.697285
 30
0.0
 11
34.889564
 21
-17.633427
 31
0.0
  0
LWPOLYLINE
  5
16B4
100
AcDbEntity
  8
VHH-025
100
AcDbPolyline
 90
        2
 70
     0
 43
0.0
 10
36.374055
 20
-11.233013
 10
81.889564
 20
-10.791485
  0
LWPOLYLINE
  5
16B5
100
AcDbEntity
  8
VHH-025
100
AcDbPolyline
 90
        2
 70
     0
 43
0.0
 10
81.889564
 20
-19.539228
 10
36.374055
 20
-19.097699
  0
LWPOLYLINE
  5
16B6
100
AcDbEntity
  8
VHH-025
100
AcDbPolyline
 90
        2
 70
     0
 43
0.0
 10
162.889564
 20
-18.142877
 10
162.889564
 20
-19.539228
  0
LWPOLYLINE
  5
16B7
100
AcDbEntity
  8
VHH-025
100
AcDbPolyline
 90
        2
 70
     0
 43
0.0
 10
161.889564
 20
-19.545375
 10
161.889564
 20
-18.142877
  0
LWPOLYLINE
  5
16B8
100
AcDbEntity
  8
VHH-025
100
AcDbPolyline
 90
        2
 70
     0
 43
0.0
 10
162.889564
 20
-10.791485
 10
162.889564
 20
-12.187836
  0
LWPOLYLINE
  5
16B9
100
AcDbEntity
  8
VHH-025
100
AcDbPolyline
 90
        2
 70
     0
 43
0.0
 10
161.889564
 20
-12.187836
 10
161.889564
 20
-10.785337
  0
LWPOLYLINE
  5
16BA
100
AcDbEntity
  8
VHH-025
100
AcDbPolyline
 90
       17
 70
     0
 43
0.0
 10
162.889564
 20
-12.187836
 10
162.889564
 20
-12.223049
 10
162.889564
 20
-12.393928
 10
162.889564
 20
-12.671268
 10
162.889564
 20
-13.044553
 10
162.889564
 20
-13.499124
 10
162.889564
 20
-14.017812
 10
162.889564
 20
-14.580328
 10
162.889564
 20
-15.165356
 10
162.889564
 20
-15.750385
 10
162.889564
 20
-16.312901
 10
162.889564
 20
-16.831589
 10
162.889564
 20
-17.28616
 10
162.889564
 20
-17.659445
 10
162.889564
 20
-17.936785
 10
162.889564
 20
-18.107664
 10
162.889564
 20
-18.142877
  0
LWPOLYLINE
  5
16BB
100
AcDbEntity
  8
VHH-025
100
AcDbPolyline
 90
       17
 70
     0
 43
0.0
 10
161.889564
 20
-18.142877
 10
161.889564
 20
-18.107666
 10
161.889564
 20
-17.936795
 10
161.889564
 20
-17.659461
 10
161.889564
 20
-17.286185
 10
161.889564
 20
-16.831612
 10
161.889564
 20
-16.312926
 10
161.889564
 20
-15.750397
 10
161.889564
 20
-15.165356
 10
161.889564
 20
-14.580316
 10
161.889564
 20
-14.017787
 10
161.889564
 20
-13.499101
 10
161.889564
 20
-13.044528
 10
161.889564
 20
-12.671252
 10
161.889564
 20
-12.393918
 10
161.889564
 20
-12.223046
 10
161.889564
 20
-12.187836
  0
LINE
  5
16BC
100
AcDbEntity
  8
VHH-025
100
AcDbLine
 10
161.889564
 20
-11.285356
 30
0.0
 11
162.889564
 21
-11.285356
 31
0.0
  0
LINE
  5
16BD
100
AcDbEntity
  8
VHH-025
100
AcDbLine
 10
162.889564
 20
-19.045356
 30
0.0
 11
161.889564
 21
-19.045356
 31
0.0
  0
LINE
  5
16BE
100
AcDbEntity
  8
VHH-025
100
AcDbLine
 10
118.101913
 20
-54.07357
 30
0.0
 11
119.400951
 21
-53.32357
 31
0.0
  0
LINE
  5
16BF
100
AcDbEntity
  8
VHH-025
100
AcDbLine
 10
117.9189
 20
-54.756583
 30
0.0
 11
124.695164
 21
-66.493417
 31
0.0
  0
ARC
  5
16C0
100
AcDbEntity
  8
VHH-025
100
AcDbCircle
 10
118.351913
 20
-54.506583
 30
0.0
 40
0.5
100
AcDbArc
 50
120.0
 51
210.0
  0
ARC
  5
16C1
100
AcDbEntity
  8
VHH-025
100
AcDbCircle
 10
125.128177
 20
-66.243417
 30
0.0
 40
0.5
100
AcDbArc
 50
210.0
 51
300.0
  0
LINE
  5
16C2
100
AcDbEntity
  8
VHH-025
100
AcDbLine
 10
125.378177
 20
-66.67643
 30
0.0
 11
126.677215
 21
-65.92643
 31
0.0
  0
ARC
  5
16C3
100
AcDbEntity
  8
VHH-025
100
AcDbCircle
 10
126.427215
 20
-65.493417
 30
0.0
 40
0.5
100
AcDbArc
 50
300.0
 51
30.0
  0
LINE
  5
16C4
100
AcDbEntity
  8
VHH-025
100
AcDbLine
 10
120.083963
 20
-53.506583
 30
0.0
 11
126.860228
 21
-65.243417
 31
0.0
  0
ARC
  5
16C5
100
AcDbEntity
  8
VHH-025
100
AcDbCircle
 10
119.650951
 20
-53.756583
 30
0.0
 40
0.5
100
AcDbArc
 50
30.0
 51
120.0
  0
CIRCLE
  5
16C6
100
AcDbEntity
  8
VHH-025
100
AcDbCircle
 10
122.389564
 20
-60.0
 30
0.0
 40
10.0
  0
CIRCLE
  5
16C7
100
AcDbEntity
  8
VHH-025
100
AcDbCircle
 10
122.389564
 20
-60.0
 30
0.0
 40
12.0
  0
INSERT
  5
16C8
100
AcDbEntity
  8
VHH-050
100
AcDbBlockReference
  2
A$C605007EB
 10
109.862837
 20
-53.951477
 30
0.0
  0
LWPOLYLINE
  5
16C9
100
AcDbEntity
  8
VHH-025
100
AcDbPolyline
 90
        2
 70
     0
 43
0.0
 10
122.389564
 20
-10.665356
 10
161.889564
 20
-10.785337
  0
LWPOLYLINE
  5
16CA
100
AcDbEntity
  8
VHH-025
100
AcDbPolyline
 90
        2
 70
     0
 43
0.0
 10
161.889564
 20
-19.545375
 10
122.389564
 20
-19.665356
  0
LWPOLYLINE
  5
16CB
100
AcDbEntity
  8
VHH-025
100
AcDbPolyline
 90
        2
 70
     0
 43
0.0
 10
255.99065
 20
-213.031032
 10
339.644586
 20
-213.039073
  0
LWPOLYLINE
  5
16CC
100
AcDbEntity
  8
VHH-025
100
AcDbPolyline
 90
        3
 70
     0
 43
0.0
 10
249.269611
 20
-218.158028
 10
252.999605
 20
-218.158028
 10
255.99065
 20
-218.158028
  0
LWPOLYLINE
  5
16CD
100
AcDbEntity
  8
VHH-025
100
AcDbPolyline
 90
        5
 70
     0
 43
0.0
 10
247.261679
 20
-218.158028
 10
247.487767
 20
-218.158028
 10
247.933739
 20
-218.158028
 10
248.552885
 20
-218.158028
 10
249.269611
 20
-218.158028
  0
LWPOLYLINE
  5
16CE
100
AcDbEntity
  8
VHH-025
100
AcDbPolyline
 90
        2
 70
     0
 43
0.0
 10
247.261679
 20
-218.158028
 10
247.287753
 20
-218.833978
  0
LWPOLYLINE
  5
16CF
100
AcDbEntity
  8
VHH-025
100
AcDbPolyline
 90
        2
 70
     0
 43
0.0
 10
255.99065
 20
-213.031032
 10
255.99065
 20
-218.158028
  0
LWPOLYLINE
  5
16D0
100
AcDbEntity
  8
VHH-025
100
AcDbPolyline
 90
        7
 70
     0
 43
0.0
 10
225.51169
 20
-218.158028
 10
226.229487
 20
-218.158028
 10
226.555644
 20
-218.158028
 10
226.848033
 20
-218.158028
 10
227.095214
 20
-218.158028
 10
227.2935
 20
-218.158028
 10
227.519619
 20
-218.158028
  0
LWPOLYLINE
  5
16D1
100
AcDbEntity
  8
VHH-025
100
AcDbPolyline
 90
        2
 70
     0
 43
0.0
 10
218.790651
 20
-218.158028
 10
218.790651
 20
-213.031032
  0
LWPOLYLINE
  5
16D2
100
AcDbEntity
  8
VHH-025
100
AcDbPolyline
 90
        3
 70
     0
 43
0.0
 10
218.790651
 20
-218.158028
 10
222.52065
 20
-218.158028
 10
225.51169
 20
-218.158028
  0
LWPOLYLINE
  5
16D3
100
AcDbEntity
  8
VHH-025
100
AcDbPolyline
 90
        2
 70
     0
 43
0.0
 10
227.493549
 20
-218.833978
 10
227.519619
 20
-218.158028
  0
LWPOLYLINE
  5
16D4
100
AcDbEntity
  8
VHH-025
100
AcDbPolyline
 90
        5
 70
     0
 43
0.0
 10
208.405073
 20
-19.097699
 10
209.003711
 20
-18.970563
 10
209.484582
 20
-18.638239
 10
209.78911
 20
-18.164663
 10
209.889564
 20
-17.633427
  0
LWPOLYLINE
  5
16D5
100
AcDbEntity
  8
VHH-025
100
AcDbPolyline
 90
        5
 70
     0
 43
0.0
 10
209.889564
 20
-12.697285
 10
209.779543
 20
-12.142364
 10
209.470375
 20
-11.677938
 10
208.999542
 20
-11.358353
 10
208.405073
 20
-11.233013
  0
LINE
  5
16D6
100
AcDbEntity
  8
VHH-025
100
AcDbLine
 10
209.889564
 20
-12.697285
 30
0.0
 11
209.889564
 21
-17.633427
 31
0.0
  0
LWPOLYLINE
  5
16D7
100
AcDbEntity
  8
VHH-025
100
AcDbPolyline
 90
        2
 70
     0
 43
0.0
 10
266.374054
 20
-11.233013
 10
311.889563
 20
-10.791485
  0
LWPOLYLINE
  5
16D8
100
AcDbEntity
  8
VHH-025
100
AcDbPolyline
 90
        2
 70
     0
 43
0.0
 10
311.889563
 20
-19.539228
 10
266.374054
 20
-19.097699
  0
LWPOLYLINE
  5
16D9
100
AcDbEntity
  8
VHH-025
100
AcDbPolyline
 90
        5
 70
     0
 43
0.0
 10
264.889563
 20
-17.633427
 10
264.999584
 20
-18.188349
 10
265.308752
 20
-18.652775
 10
265.779584
 20
-18.972359
 10
266.374054
 20
-19.097699
  0
LWPOLYLINE
  5
16DA
100
AcDbEntity
  8
VHH-025
100
AcDbPolyline
 90
        5
 70
     0
 43
0.0
 10
266.374054
 20
-11.233013
 10
265.775414
 20
-11.360151
 10
265.294542
 20
-11.692476
 10
264.990015
 20
-12.166053
 10
264.889563
 20
-12.697285
  0
LINE
  5
16DB
100
AcDbEntity
  8
VHH-025
100
AcDbLine
 10
264.889563
 20
-12.697285
 30
0.0
 11
264.889563
 21
-17.633427
 31
0.0
  0
LWPOLYLINE
  5
16DC
100
AcDbEntity
  8
VHH-025
100
AcDbPolyline
 90
        2
 70
     0
 43
0.0
 10
311.889563
 20
-19.539228
 10
311.889563
 20
-18.142877
  0
LWPOLYLINE
  5
16DD
100
AcDbEntity
  8
VHH-025
100
AcDbPolyline
 90
        2
 70
     0
 43
0.0
 10
311.889563
 20
-12.187836
 10
311.889563
 20
-10.791485
  0
LWPOLYLINE
  5
16DE
100
AcDbEntity
  8
VHH-025
100
AcDbPolyline
 90
       17
 70
     0
 43
0.0
 10
311.889563
 20
-18.142877
 10
311.889563
 20
-18.107664
 10
311.889563
 20
-17.936785
 10
311.889563
 20
-17.659445
 10
311.889563
 20
-17.28616
 10
311.889563
 20
-16.831589
 10
311.889563
 20
-16.312901
 10
311.889563
 20
-15.750385
 10
311.889563
 20
-15.165356
 10
311.889563
 20
-14.580328
 10
311.889563
 20
-14.017812
 10
311.889563
 20
-13.499124
 10
311.889563
 20
-13.044553
 10
311.889563
 20
-12.671268
 10
311.889563
 20
-12.393928
 10
311.889563
 20
-12.223049
 10
311.889563
 20
-12.187836
  0
LWPOLYLINE
  5
16DF
100
AcDbEntity
  8
VHH-025
100
AcDbPolyline
 90
        2
 70
     0
 43
0.0
 10
312.889563
 20
-18.142877
 10
312.889563
 20
-19.545375
  0
LWPOLYLINE
  5
16E0
100
AcDbEntity
  8
VHH-025
100
AcDbPolyline
 90
        2
 70
     0
 43
0.0
 10
312.889563
 20
-10.785337
 10
312.889563
 20
-12.187836
  0
LWPOLYLINE
  5
16E1
100
AcDbEntity
  8
VHH-025
100
AcDbPolyline
 90
       17
 70
     0
 43
0.0
 10
312.889563
 20
-12.187836
 10
312.889563
 20
-12.223046
 10
312.889563
 20
-12.393918
 10
312.889563
 20
-12.671252
 10
312.889563
 20
-13.044528
 10
312.889563
 20
-13.499101
 10
312.889563
 20
-14.017787
 10
312.889563
 20
-14.580316
 10
312.889563
 20
-15.165356
 10
312.889563
 20
-15.750397
 10
312.889563
 20
-16.312926
 10
312.889563
 20
-16.831612
 10
312.889563
 20
-17.286185
 10
312.889563
 20
-17.659461
 10
312.889563
 20
-17.936795
 10
312.889563
 20
-18.107666
 10
312.889563
 20
-18.142877
  0
LINE
  5
16E2
100
AcDbEntity
  8
VHH-025
100
AcDbLine
 10
311.889563
 20
-11.285356
 30
0.0
 11
312.889563
 21
-11.285356
 31
0.0
  0
LINE
  5
16E3
100
AcDbEntity
  8
VHH-025
100
AcDbLine
 10
312.889563
 20
-19.045356
 30
0.0
 11
311.889563
 21
-19.045356
 31
0.0
  0
LINE
  5
16E4
100
AcDbEntity
  8
VHH-025
100
AcDbLine
 10
185.261197
 20
12.0
 30
0.0
 11
168.261197
 21
12.0
 31
0.0
  0
LINE
  5
16E5
100
AcDbEntity
  8
VHH-025
100
AcDbLine
 10
189.761197
 20
7.2
 30
0.0
 11
163.761197
 21
7.2
 31
0.0
  0
LINE
  5
16E6
100
AcDbEntity
  8
VHH-025
100
AcDbLine
 10
5.391739
 20
0.0
 30
0.0
 11
239.387389
 21
0.0
 31
0.0
  0
LINE
  5
16E7
100
AcDbEntity
  8
VHH-025
100
AcDbLine
 10
168.261197
 20
7.2
 30
0.0
 11
168.261197
 21
12.0
 31
0.0
  0
LINE
  5
16E8
100
AcDbEntity
  8
VHH-025
100
AcDbLine
 10
163.761197
 20
0.0
 30
0.0
 11
163.761197
 21
7.2
 31
0.0
  0
LINE
  5
16E9
100
AcDbEntity
  8
VHH-025
100
AcDbLine
 10
176.761197
 20
7.2
 30
0.0
 11
176.761197
 21
12.0
 31
0.0
  0
LINE
  5
16EA
100
AcDbEntity
  8
VHH-025
100
AcDbLine
 10
185.261197
 20
7.2
 30
0.0
 11
185.261197
 21
12.0
 31
0.0
  0
LINE
  5
16EB
100
AcDbEntity
  8
VHH-025
100
AcDbLine
 10
189.761197
 20
0.0
 30
0.0
 11
189.761197
 21
7.2
 31
0.0
  0
LINE
  5
16EC
100
AcDbEntity
  8
VHH-025
100
AcDbLine
 10
449.289562
 20
-218.158028
 30
0.0
 11
449.289562
 21
0.0
 31
0.0
  0
LWPOLYLINE
  5
16ED
100
AcDbEntity
  8
VHH-025
100
AcDbPolyline
 90
        2
 70
     0
 43
0.0
 10
365.136714
 20
-213.039073
 10
448.79065
 20
-213.031032
  0
LWPOLYLINE
  5
16EE
100
AcDbEntity
  8
VHH-025
100
AcDbPolyline
 90
        4
 70
     0
 43
0.0
 10
352.39065
 20
-213.038884
 10
355.604412
 20
-213.038968
 10
358.818174
 20
-213.039027
 10
365.136714
 20
-213.039073
  0
LWPOLYLINE
  5
16EF
100
AcDbEntity
  8
VHH-025
100
AcDbPolyline
 90
        7
 70
     0
 43
0.0
 10
455.511689
 20
-218.158028
 10
456.229485
 20
-218.158028
 10
456.555643
 20
-218.158028
 10
456.848031
 20
-218.158028
 10
457.095212
 20
-218.158028
 10
457.293498
 20
-218.158028
 10
457.519618
 20
-218.158028
  0
LWPOLYLINE
  5
16F0
100
AcDbEntity
  8
VHH-025
100
AcDbPolyline
 90
        2
 70
     0
 43
0.0
 10
448.79065
 20
-218.158028
 10
448.79065
 20
-213.031032
  0
LWPOLYLINE
  5
16F1
100
AcDbEntity
  8
VHH-025
100
AcDbPolyline
 90
        3
 70
     0
 43
0.0
 10
448.79065
 20
-218.158028
 10
452.520649
 20
-218.158028
 10
455.511689
 20
-218.158028
  0
LWPOLYLINE
  5
16F2
100
AcDbEntity
  8
VHH-025
100
AcDbPolyline
 90
        2
 70
     0
 43
0.0
 10
457.493547
 20
-218.833978
 10
457.519618
 20
-218.158028
  0
LWPOLYLINE
  5
16F3
100
AcDbEntity
  8
VHH-025
100
AcDbPolyline
 90
        2
 70
     0
 43
0.0
 10
392.889563
 20
-10.791485
 10
438.405072
 20
-11.233013
  0
LWPOLYLINE
  5
16F4
100
AcDbEntity
  8
VHH-025
100
AcDbPolyline
 90
        2
 70
     0
 43
0.0
 10
438.405072
 20
-19.097699
 10
392.889563
 20
-19.539228
  0
LWPOLYLINE
  5
16F5
100
AcDbEntity
  8
VHH-025
100
AcDbPolyline
 90
        2
 70
     0
 43
0.0
 10
352.389563
 20
-10.665356
 10
391.889563
 20
-10.785337
  0
LWPOLYLINE
  5
16F6
100
AcDbEntity
  8
VHH-025
100
AcDbPolyline
 90
        2
 70
     0
 43
0.0
 10
391.889563
 20
-19.545375
 10
352.389563
 20
-19.665356
  0
LINE
  5
16F7
100
AcDbEntity
  8
VHH-025
100
AcDbLine
 10
348.101911
 20
-54.07357
 30
0.0
 11
349.40095
 21
-53.32357
 31
0.0
  0
LINE
  5
16F8
100
AcDbEntity
  8
VHH-025
100
AcDbLine
 10
347.918899
 20
-54.756583
 30
0.0
 11
354.695163
 21
-66.493417
 31
0.0
  0
ARC
  5
16F9
100
AcDbEntity
  8
VHH-025
100
AcDbCircle
 10
348.351911
 20
-54.506583
 30
0.0
 40
0.5
100
AcDbArc
 50
120.0
 51
210.0
  0
ARC
  5
16FA
100
AcDbEntity
  8
VHH-025
100
AcDbCircle
 10
355.128176
 20
-66.243417
 30
0.0
 40
0.5
100
AcDbArc
 50
210.0
 51
300.0
  0
LINE
  5
16FB
100
AcDbEntity
  8
VHH-025
100
AcDbLine
 10
355.378176
 20
-66.67643
 30
0.0
 11
356.677214
 21
-65.92643
 31
0.0
  0
ARC
  5
16FC
100
AcDbEntity
  8
VHH-025
100
AcDbCircle
 10
356.427214
 20
-65.493417
 30
0.0
 40
0.5
100
AcDbArc
 50
300.0
 51
30.0
  0
LINE
  5
16FD
100
AcDbEntity
  8
VHH-025
100
AcDbLine
 10
350.083962
 20
-53.506583
 30
0.0
 11
356.860227
 21
-65.243417
 31
0.0
  0
ARC
  5
16FE
100
AcDbEntity
  8
VHH-025
100
AcDbCircle
 10
349.65095
 20
-53.756583
 30
0.0
 40
0.5
100
AcDbArc
 50
30.0
 51
120.0
  0
LWPOLYLINE
  5
16FF
100
AcDbEntity
  8
VHH-025
100
AcDbPolyline
 90
        2
 70
     0
 43
0.0
 10
392.889563
 20
-18.142877
 10
392.889563
 20
-19.539228
  0
LWPOLYLINE
  5
1700
100
AcDbEntity
  8
VHH-025
100
AcDbPolyline
 90
        2
 70
     0
 43
0.0
 10
391.889563
 20
-19.545375
 10
391.889563
 20
-18.142877
  0
LWPOLYLINE
  5
1701
100
AcDbEntity
  8
VHH-025
100
AcDbPolyline
 90
        2
 70
     0
 43
0.0
 10
392.889563
 20
-10.791485
 10
392.889563
 20
-12.187836
  0
LWPOLYLINE
  5
1702
100
AcDbEntity
  8
VHH-025
100
AcDbPolyline
 90
        2
 70
     0
 43
0.0
 10
391.889563
 20
-12.187836
 10
391.889563
 20
-10.785337
  0
LWPOLYLINE
  5
1703
100
AcDbEntity
  8
VHH-025
100
AcDbPolyline
 90
       17
 70
     0
 43
0.0
 10
392.889563
 20
-12.187836
 10
392.889563
 20
-12.223049
 10
392.889563
 20
-12.393928
 10
392.889563
 20
-12.671268
 10
392.889563
 20
-13.044553
 10
392.889563
 20
-13.499124
 10
392.889563
 20
-14.017812
 10
392.889563
 20
-14.580328
 10
392.889563
 20
-15.165356
 10
392.889563
 20
-15.750385
 10
392.889563
 20
-16.312901
 10
392.889563
 20
-16.831589
 10
392.889563
 20
-17.28616
 10
392.889563
 20
-17.659445
 10
392.889563
 20
-17.936785
 10
392.889563
 20
-18.107664
 10
392.889563
 20
-18.142877
  0
LWPOLYLINE
  5
1704
100
AcDbEntity
  8
VHH-025
100
AcDbPolyline
 90
       17
 70
     0
 43
0.0
 10
391.889563
 20
-18.142877
 10
391.889563
 20
-18.107666
 10
391.889563
 20
-17.936795
 10
391.889563
 20
-17.659461
 10
391.889563
 20
-17.286185
 10
391.889563
 20
-16.831612
 10
391.889563
 20
-16.312926
 10
391.889563
 20
-15.750397
 10
391.889563
 20
-15.165356
 10
391.889563
 20
-14.580316
 10
391.889563
 20
-14.017787
 10
391.889563
 20
-13.499101
 10
391.889563
 20
-13.044528
 10
391.889563
 20
-12.671252
 10
391.889563
 20
-12.393918
 10
391.889563
 20
-12.223046
 10
391.889563
 20
-12.187836
  0
LINE
  5
1705
100
AcDbEntity
  8
VHH-025
100
AcDbLine
 10
391.889563
 20
-11.285356
 30
0.0
 11
392.889563
 21
-11.285356
 31
0.0
  0
LINE
  5
1706
100
AcDbEntity
  8
VHH-025
100
AcDbLine
 10
392.889563
 20
-19.045356
 30
0.0
 11
391.889563
 21
-19.045356
 31
0.0
  0
LWPOLYLINE
  5
1707
100
AcDbEntity
  8
VHH-025
100
AcDbPolyline
 90
        5
 70
     0
 43
0.0
 10
438.405072
 20
-19.097699
 10
439.003709
 20
-18.970563
 10
439.484581
 20
-18.638239
 10
439.789109
 20
-18.164663
 10
439.889563
 20
-17.633427
  0
LWPOLYLINE
  5
1708
100
AcDbEntity
  8
VHH-025
100
AcDbPolyline
 90
        5
 70
     0
 43
0.0
 10
439.889563
 20
-12.697285
 10
439.779542
 20
-12.142364
 10
439.470373
 20
-11.677938
 10
438.999541
 20
-11.358353
 10
438.405072
 20
-11.233013
  0
LINE
  5
1709
100
AcDbEntity
  8
VHH-025
100
AcDbLine
 10
439.889563
 20
-12.697285
 30
0.0
 11
439.889563
 21
-17.633427
 31
0.0
  0
ELLIPSE
  5
170A
100
AcDbEntity
  8
VHH-025
100
AcDbEllipse
 10
472.300029
 20
-28.0
 30
0.0
 11
0.0000000000000028
 21
15.00000158390139
 31
0.0
210
0.0
220
0.0
230
1.0
 40
0.165303
 41
3.762083072775144
 42
5.662694887994181
  0
LINE
  5
170B
100
AcDbEntity
  8
VHH-025
100
AcDbLine
 10
472.600184
 20
-14.416858
 30
0.0
 11
469.387388
 21
-12.999998
 31
0.0
  0
ARC
  5
170C
100
AcDbEntity
  8
VHH-025
100
AcDbCircle
 10
471.793167
 20
-16.24681
 30
0.0
 40
2.0
100
AcDbArc
 50
13.023817
 51
66.202274
  0
ARC
  5
170D
100
AcDbEntity
  8
VHH-025
100
AcDbCircle
 10
471.793167
 20
-39.75319
 30
0.0
 40
2.0
100
AcDbArc
 50
293.797726
 51
346.976183
  0
LINE
  5
170E
100
AcDbEntity
  8
VHH-025
100
AcDbLine
 10
472.600184
 20
-41.583142
 30
0.0
 11
469.387388
 21
-43.000002
 31
0.0
  0
ENDSEC
  0
SECTION
  2
OBJECTS
  0
DICTIONARY
  5
C
100
AcDbDictionary
  3
ACAD_GROUP
350
D
  3
ACAD_MLINESTYLE
350
E
  3
AMACAD
350
975
  0
DICTIONARY
  5
D
102
{ACAD_REACTORS
330
C
102
}
100
AcDbDictionary
  0
DICTIONARY
  5
E
102
{ACAD_REACTORS
330
C
102
}
100
AcDbDictionary
  3
STANDARD
350
1B
  0
DICTIONARY
  5
975
102
{ACAD_REACTORS
330
C
102
}
100
AcDbDictionary
  3
AM_LOADER
350
976
  0
MLINESTYLE
  5
1B
102
{ACAD_REACTORS
330
E
102
}
100
AcDbMlineStyle
  2
STANDARD
 70
     0
  3

 62
     0
 51
90.0
 52
90.0
 71
     2
 49
0.5
 62
   256
  6
BYLAYER
 49
-0.5
 62
   256
  6
BYLAYER
  0
AMLOADER
  5
976
102
{ACAD_REACTORS
330
975
102
}
100
AMLoader
 90
        1
 70
     3
 70
     0
 70
   921
 70
   861
280
     0
  0
ENDSEC
  0
EOF
