  0
SECTION
  2
HEADER
  9
$ACADVER
  1
AC1014
  9
$ACADMAINTVER
 70
     5
  9
$DWGCODEPAGE
  3
ANSI_1252
  9
$INSBASE
 10
0.0
 20
0.0
 30
0.0
  9
$EXTMIN
 10
-29.626915
 20
-8.84174
 30
0.0
  9
$EXTMAX
 10
509.25514
 20
611.554225
 30
0.0
  9
$LIMMIN
 10
0.0
 20
0.0
  9
$LIMMAX
 10
420.0
 20
297.0
  9
$ORTHOMODE
 70
     1
  9
$REGENMODE
 70
     1
  9
$FILLMODE
 70
     1
  9
$QTEXTMODE
 70
     0
  9
$MIRRTEXT
 70
     0
  9
$DRAGMODE
 70
     2
  9
$LTSCALE
 40
1.0
  9
$OSMODE
 70
    39
  9
$ATTMODE
 70
     1
  9
$TEXTSIZE
 40
3.5
  9
$TRACEWID
 40
0.05
  9
$TEXTSTYLE
  7
ROMANS
  9
$CLAYER
  8
0
  9
$CELTYPE
  6
BYLAYER
  9
$CECOLOR
 62
   256
  9
$CELTSCALE
 40
1.0
  9
$DELOBJ
 70
     1
  9
$DISPSILH
 70
     0
  9
$DIMSCALE
 40
1.0
  9
$DIMASZ
 40
2.5
  9
$DIMEXO
 40
1.5
  9
$DIMDLI
 40
5.0
  9
$DIMRND
 40
0.0
  9
$DIMDLE
 40
0.0
  9
$DIMEXE
 40
1.0
  9
$DIMTP
 40
0.0
  9
$DIMTM
 40
0.0
  9
$DIMTXT
 40
3.0
  9
$DIMCEN
 40
0.0
  9
$DIMTSZ
 40
0.0
  9
$DIMTOL
 70
     0
  9
$DIMLIM
 70
     0
  9
$DIMTIH
 70
     0
  9
$DIMTOH
 70
     0
  9
$DIMSE1
 70
     0
  9
$DIMSE2
 70
     0
  9
$DIMTAD
 70
     1
  9
$DIMZIN
 70
     8
  9
$DIMBLK
  1

  9
$DIMASO
 70
     1
  9
$DIMSHO
 70
     1
  9
$DIMPOST
  1

  9
$DIMAPOST
  1

  9
$DIMALT
 70
     0
  9
$DIMALTD
 70
     2
  9
$DIMALTF
 40
25.4
  9
$DIMLFAC
 40
1.0
  9
$DIMTOFL
 70
     1
  9
$DIMTVP
 40
0.0
  9
$DIMTIX
 70
     0
  9
$DIMSOXD
 70
     0
  9
$DIMSAH
 70
     0
  9
$DIMBLK1
  1

  9
$DIMBLK2
  1

  9
$DIMSTYLE
  2
STANDAARD
  9
$DIMCLRD
 70
   256
  9
$DIMCLRE
 70
   256
  9
$DIMCLRT
 70
     2
  9
$DIMTFAC
 40
0.75
  9
$DIMGAP
 40
1.0
  9
$DIMJUST
 70
     0
  9
$DIMSD1
 70
     0
  9
$DIMSD2
 70
     0
  9
$DIMTOLJ
 70
     1
  9
$DIMTZIN
 70
     8
  9
$DIMALTZ
 70
     8
  9
$DIMALTTZ
 70
     8
  9
$DIMFIT
 70
     0
  9
$DIMUPT
 70
     0
  9
$DIMUNIT
 70
     2
  9
$DIMDEC
 70
     2
  9
$DIMTDEC
 70
     2
  9
$DIMALTU
 70
     2
  9
$DIMALTTD
 70
     2
  9
$DIMTXSTY
  7
ROMANS
  9
$DIMAUNIT
 70
     0
  9
$LUNITS
 70
     2
  9
$LUPREC
 70
     2
  9
$SKETCHINC
 40
0.1
  9
$FILLETRAD
 40
10.0
  9
$AUNITS
 70
     0
  9
$AUPREC
 70
     2
  9
$MENU
  1
wtb2
  9
$ELEVATION
 40
0.0
  9
$PELEVATION
 40
0.0
  9
$THICKNESS
 40
0.0
  9
$LIMCHECK
 70
     0
  9
$BLIPMODE
 70
     0
  9
$CHAMFERA
 40
1.6
  9
$CHAMFERB
 40
2.5
  9
$CHAMFERC
 40
0.0
  9
$CHAMFERD
 40
0.0
  9
$SKPOLY
 70
     0
  9
$TDCREATE
 40
2452466.423157523
  9
$TDUPDATE
 40
2452466.679981018
  9
$TDINDWG
 40
0.0054226389
  9
$TDUSRTIMER
 40
0.0054226389
  9
$USRTIMER
 70
     1
  9
$ANGBASE
 50
0.0
  9
$ANGDIR
 70
     0
  9
$PDMODE
 70
     3
  9
$PDSIZE
 40
0.0
  9
$PLINEWID
 40
0.0
  9
$COORDS
 70
     2
  9
$SPLFRAME
 70
     0
  9
$SPLINETYPE
 70
     6
  9
$SPLINESEGS
 70
     8
  9
$ATTDIA
 70
     0
  9
$ATTREQ
 70
     1
  9
$HANDLING
 70
     1
  9
$HANDSEED
  5
17BE
  9
$SURFTAB1
 70
     6
  9
$SURFTAB2
 70
     6
  9
$SURFTYPE
 70
     6
  9
$SURFU
 70
     6
  9
$SURFV
 70
     6
  9
$UCSNAME
  2

  9
$UCSORG
 10
0.0
 20
0.0
 30
0.0
  9
$UCSXDIR
 10
1.0
 20
0.0
 30
0.0
  9
$UCSYDIR
 10
0.0
 20
1.0
 30
0.0
  9
$PUCSNAME
  2

  9
$PUCSORG
 10
0.0
 20
0.0
 30
0.0
  9
$PUCSXDIR
 10
1.0
 20
0.0
 30
0.0
  9
$PUCSYDIR
 10
0.0
 20
1.0
 30
0.0
  9
$USERI1
 70
     0
  9
$USERI2
 70
     0
  9
$USERI3
 70
     0
  9
$USERI4
 70
     0
  9
$USERI5
 70
     0
  9
$USERR1
 40
0.0
  9
$USERR2
 40
0.0
  9
$USERR3
 40
0.0
  9
$USERR4
 40
0.0
  9
$USERR5
 40
0.0
  9
$WORLDVIEW
 70
     1
  9
$SHADEDGE
 70
     3
  9
$SHADEDIF
 70
    70
  9
$TILEMODE
 70
     1
  9
$MAXACTVP
 70
    16
  9
$PINSBASE
 10
0.0
 20
0.0
 30
0.0
  9
$PLIMCHECK
 70
     0
  9
$PEXTMIN
 10
1.000000E+20
 20
1.000000E+20
 30
1.000000E+20
  9
$PEXTMAX
 10
-1.000000E+20
 20
-1.000000E+20
 30
-1.000000E+20
  9
$PLIMMIN
 10
0.0
 20
0.0
  9
$PLIMMAX
 10
12.0
 20
9.0
  9
$UNITMODE
 70
     0
  9
$VISRETAIN
 70
     0
  9
$PLINEGEN
 70
     0
  9
$PSLTSCALE
 70
     0
  9
$TREEDEPTH
 70
  3020
  9
$PICKSTYLE
 70
     1
  9
$CMLSTYLE
  2
STANDARD
  9
$CMLJUST
 70
     0
  9
$CMLSCALE
 40
1.0
  9
$PROXYGRAPHICS
 70
     1
  9
$MEASUREMENT
 70
     1
  0
ENDSEC
  0
SECTION
  2
CLASSES
  0
CLASS
  1
LWPOLYLINE
  2
AcDbPolyline
  3
"AutoCAD"
 90
        0
280
     0
281
     1
  0
CLASS
  1
AMLOADER
  2
AMLoader
  3
AMAcad
 90
        0
280
     0
281
     0
  0
ENDSEC
  0
SECTION
  2
TABLES
  0
TABLE
  2
VPORT
  5
8
100
AcDbSymbolTable
 70
     2
  0
VPORT
  5
17BD
100
AcDbSymbolTableRecord
100
AcDbViewportTableRecord
  2
*ACTIVE
 70
     0
 10
0.0
 20
0.0
 11
1.0
 21
1.0
 12
239.814112
 22
301.356242
 13
0.0
 23
0.0
 14
2.5
 24
2.5
 15
5.0
 25
5.0
 16
0.0
 26
0.0
 36
1.0
 17
0.0
 27
0.0
 37
0.0
 40
627.379784
 41
1.650376
 42
50.0
 43
0.0
 44
0.0
 50
0.0
 51
0.0
 71
     0
 72
 20000
 73
     1
 74
     0
 75
     0
 76
     0
 77
     0
 78
     1
  0
ENDTAB
  0
TABLE
  2
LTYPE
  5
5
100
AcDbSymbolTable
 70
     1
  0
LTYPE
  5
12
100
AcDbSymbolTableRecord
100
AcDbLinetypeTableRecord
  2
BYBLOCK
 70
     0
  3

 72
    65
 73
     0
 40
0.0
  0
LTYPE
  5
13
100
AcDbSymbolTableRecord
100
AcDbLinetypeTableRecord
  2
BYLAYER
 70
     0
  3

 72
    65
 73
     0
 40
0.0
  0
LTYPE
  5
14
100
AcDbSymbolTableRecord
100
AcDbLinetypeTableRecord
  2
CONTINUOUS
 70
     0
  3
Solid line
 72
    65
 73
     0
 40
0.0
  0
ENDTAB
  0
TABLE
  2
LAYER
  5
2
100
AcDbSymbolTable
 70
     4
  0
LAYER
  5
F
100
AcDbSymbolTableRecord
100
AcDbLayerTableRecord
  2
0
 70
     0
 62
     8
  6
CONTINUOUS
  0
LAYER
  5
996
100
AcDbSymbolTableRecord
100
AcDbLayerTableRecord
  2
VHH-050
 70
     0
 62
     4
  6
CONTINUOUS
  0
LAYER
  5
997
100
AcDbSymbolTableRecord
100
AcDbLayerTableRecord
  2
VHH-025
 70
     0
 62
     7
  6
CONTINUOUS
  0
LAYER
  5
998
100
AcDbSymbolTableRecord
100
AcDbLayerTableRecord
  2
VHH-070
 70
     0
 62
     4
  6
CONTINUOUS
  0
ENDTAB
  0
TABLE
  2
STYLE
  5
3
100
AcDbSymbolTable
 70
     2
  0
STYLE
  5
10
100
AcDbSymbolTableRecord
100
AcDbTextStyleTableRecord
  2
STANDARD
 70
     0
 40
0.0
 41
1.0
 50
0.0
 71
     0
 42
15.0
  3
txt
  4

  0
STYLE
  5
1C
100
AcDbSymbolTableRecord
100
AcDbTextStyleTableRecord
  2
ROMANS
 70
     0
 40
0.0
 41
1.0
 50
0.0
 71
     0
 42
3.5
  3
romans
  4

  0
ENDTAB
  0
TABLE
  2
VIEW
  5
6
100
AcDbSymbolTable
 70
     2
  0
VIEW
  5
600
100
AcDbSymbolTableRecord
100
AcDbViewTableRecord
  2
VIEW0
 70
     0
 40
297.0
 10
210.0
 20
148.5
 41
420.0
 11
0.0
 21
0.0
 31
1.0
 12
0.0
 22
0.0
 32
0.0
 42
50.0
 43
0.0
 44
0.0
 50
0.0
 71
     0
  0
VIEW
  5
601
100
AcDbSymbolTableRecord
100
AcDbViewTableRecord
  2
VIEW1
 70
     0
 40
297.0
 10
210.0
 20
148.5
 41
420.0
 11
0.0
 21
0.0
 31
1.0
 12
0.0
 22
0.0
 32
0.0
 42
50.0
 43
0.0
 44
0.0
 50
0.0
 71
     0
  0
ENDTAB
  0
TABLE
  2
UCS
  5
7
100
AcDbSymbolTable
 70
     0
  0
ENDTAB
  0
TABLE
  2
APPID
  5
9
100
AcDbSymbolTable
 70
     3
  0
APPID
  5
11
100
AcDbSymbolTableRecord
100
AcDbRegAppTableRecord
  2
ACAD
 70
     0
  0
APPID
  5
37E
100
AcDbSymbolTableRecord
100
AcDbRegAppTableRecord
  2
ADMEPROFILELINK
 70
     0
  0
APPID
  5
974
100
AcDbSymbolTableRecord
100
AcDbRegAppTableRecord
  2
AMACAD
 70
     0
  0
ENDTAB
  0
TABLE
  2
DIMSTYLE
  5
A
100
AcDbSymbolTable
 70
     2
  0
DIMSTYLE
105
4E
100
AcDbSymbolTableRecord
100
AcDbDimStyleTableRecord
  2
STANDARD
 70
     0
  3

  4

  5

  6

  7

 40
1.0
 41
2.2
 42
1.5
 43
7.0
 44
1.2
 45
0.0
 46
0.0
 47
0.0
 48
0.0
140
2.5
141
-3.0
142
0.0
143
25.4
144
1.0
145
0.0
146
1.0
147
0.5
 71
     0
 72
     0
 73
     0
 74
     0
 75
     0
 76
     0
 77
     1
 78
     8
170
     0
171
     2
172
     1
173
     0
174
     0
175
     0
176
   256
177
   256
178
     2
270
     2
271
     4
272
     4
273
     2
274
     2
340
10
275
     0
280
     0
281
     0
282
     0
283
     1
284
     0
285
     0
286
     0
287
     3
288
     0
  0
DIMSTYLE
105
190
100
AcDbSymbolTableRecord
100
AcDbDimStyleTableRecord
  2
STANDAARD
 70
     0
  3

  4

  5

  6

  7

 40
1.0
 41
2.5
 42
1.5
 43
5.0
 44
1.0
 45
0.0
 46
0.0
 47
0.0
 48
0.0
140
3.0
141
0.0
142
0.0
143
25.4
144
1.0
145
0.0
146
0.75
147
1.0
 71
     0
 72
     0
 73
     0
 74
     0
 75
     0
 76
     0
 77
     1
 78
     8
170
     0
171
     2
172
     1
173
     0
174
     0
175
     0
176
   256
177
   256
178
     2
270
     2
271
     2
272
     2
273
     2
274
     2
340
1C
275
     0
280
     0
281
     0
282
     0
283
     1
284
     8
285
     8
286
     8
287
     0
288
     0
  0
ENDTAB
  0
TABLE
  2
BLOCK_RECORD
  5
1
100
AcDbSymbolTable
 70
     4
  0
BLOCK_RECORD
  5
18
100
AcDbSymbolTableRecord
100
AcDbBlockTableRecord
  2
*MODEL_SPACE
  0
BLOCK_RECORD
  5
15
100
AcDbSymbolTableRecord
100
AcDbBlockTableRecord
  2
*PAPER_SPACE
  0
BLOCK_RECORD
  5
1B2
100
AcDbSymbolTableRecord
100
AcDbBlockTableRecord
  2
TEK_INFO
  0
BLOCK_RECORD
  5
987
100
AcDbSymbolTableRecord
100
AcDbBlockTableRecord
  2
A$C7A7B4A19
  0
BLOCK_RECORD
  5
98C
100
AcDbSymbolTableRecord
100
AcDbBlockTableRecord
  2
A$C605007EB
  0
BLOCK_RECORD
  5
991
100
AcDbSymbolTableRecord
100
AcDbBlockTableRecord
  2
A$C32063EEB
  0
ENDTAB
  0
ENDSEC
  0
SECTION
  2
BLOCKS
  0
BLOCK
  5
46
100
AcDbEntity
  8
0
100
AcDbBlockBegin
  2
*MODEL_SPACE
 70
     0
 10
0.0
 20
0.0
 30
0.0
  3
*MODEL_SPACE
  1

  0
ENDBLK
  5
47
100
AcDbEntity
  8
0
100
AcDbBlockEnd
  0
BLOCK
  5
44
100
AcDbEntity
 67
     1
  8
0
100
AcDbBlockBegin
  2
*PAPER_SPACE
 70
     0
 10
0.0
 20
0.0
 30
0.0
  3
*PAPER_SPACE
  1

  0
ENDBLK
  5
45
100
AcDbEntity
 67
     1
  8
0
100
AcDbBlockEnd
  0
BLOCK
  5
1B9
100
AcDbEntity
  8
0
100
AcDbBlockBegin
  2
TEK_INFO
 70
     2
 10
0.0
 20
0.0
 30
0.0
  3
TEK_INFO
  1

  0
ATTDEF
  5
276
100
AcDbEntity
  8
0
100
AcDbText
 10
15.0
 20
31.5
 30
0.0
 40
2.5
  1
A3
  7
ROMANS
100
AcDbAttributeDefinition
  3

  2
FORMAAT
 70
     9
  0
ATTDEF
  5
277
100
AcDbEntity
  8
0
100
AcDbText
 10
15.0
 20
27.5
 30
0.0
 40
2.5
  1
hor
  7
ROMANS
100
AcDbAttributeDefinition
  3

  2
POSITIE
 70
     9
  0
ATTDEF
  5
278
100
AcDbEntity
  8
0
100
AcDbText
 10
15.0
 20
23.5
 30
0.0
 40
2.5
  1
1
  7
ROMANS
100
AcDbAttributeDefinition
  3

  2
AANTAL
 70
     9
  0
ATTDEF
  5
279
100
AcDbEntity
  8
0
100
AcDbText
 10
15.0
 20
19.5
 30
0.0
 40
2.5
  1
1
  7
ROMANS
100
AcDbAttributeDefinition
  3

  2
TEKSCHAAL
 70
     9
  0
ATTDEF
  5
27A
100
AcDbEntity
  8
0
100
AcDbText
 10
15.0
 20
15.5
 30
0.0
 40
2.5
  1
1
  7
ROMANS
100
AcDbAttributeDefinition
  3

  2
SNAPSCHAAL
 70
     9
  0
ATTDEF
  5
27B
100
AcDbEntity
  8
0
100
AcDbText
 10
15.0
 20
11.5
 30
0.0
 40
2.5
  1
1
  7
ROMANS
100
AcDbAttributeDefinition
  3

  2
BLADAANTAL
 70
     9
  0
ENDBLK
  5
1BA
100
AcDbEntity
  8
0
100
AcDbBlockEnd
  0
BLOCK
  5
98A
100
AcDbEntity
  8
0
100
AcDbBlockBegin
  2
A$C7A7B4A19
 70
     0
 10
0.0
 20
0.0
 30
0.0
  3
A$C7A7B4A19
  1

  0
LINE
  5
988
100
AcDbEntity
  8
VHH-050
100
AcDbLine
 10
0.000002
 20
17.677669
 30
0.0
 11
35.355341
 21
17.677669
 31
0.0
  0
LINE
  5
989
100
AcDbEntity
  8
VHH-050
100
AcDbLine
 10
17.677671
 20
-0.000001
 30
0.0
 11
17.677671
 21
35.355338
 31
0.0
  0
ENDBLK
  5
98B
100
AcDbEntity
  8
0
100
AcDbBlockEnd
  0
BLOCK
  5
98F
100
AcDbEntity
  8
0
100
AcDbBlockBegin
  2
A$C605007EB
 70
     0
 10
0.0
 20
0.0
 30
0.0
  3
A$C605007EB
  1

  0
LINE
  5
98D
100
AcDbEntity
  8
VHH-050
100
AcDbLine
 10
0.000002
 20
25.000002
 30
0.0
 11
25.000002
 21
0.000002
 31
0.0
  0
LINE
  5
98E
100
AcDbEntity
  8
VHH-050
100
AcDbLine
 10
0.000002
 20
0.000002
 30
0.0
 11
25.000002
 21
25.000002
 31
0.0
  0
ENDBLK
  5
990
100
AcDbEntity
  8
0
100
AcDbBlockEnd
  0
BLOCK
  5
994
100
AcDbEntity
  8
0
100
AcDbBlockBegin
  2
A$C32063EEB
 70
     0
 10
0.0
 20
0.0
 30
0.0
  3
A$C32063EEB
  1

  0
CIRCLE
  5
992
100
AcDbEntity
  8
VHH-050
100
AcDbCircle
 10
8.838839
 20
8.838837
 30
0.0
 40
1.838835
  0
CIRCLE
  5
993
100
AcDbEntity
  8
VHH-050
100
AcDbCircle
 10
8.838839
 20
8.838837
 30
0.0
 40
8.838835
  0
ENDBLK
  5
995
100
AcDbEntity
  8
0
100
AcDbBlockEnd
  0
ENDSEC
  0
SECTION
  2
ENTITIES
  0
INSERT
  5
27C
100
AcDbEntity
  8
0
100
AcDbBlockReference
 66
     1
  2
TEK_INFO
 10
0.0
 20
0.0
 30
0.0
  0
ATTRIB
  5
27D
100
AcDbEntity
  8
0
100
AcDbText
 10
15.0
 20
31.5
 30
0.0
 40
2.5
  1
A3
  7
ROMANS
100
AcDbAttribute
  2
FORMAAT
 70
     9
  0
ATTRIB
  5
27E
100
AcDbEntity
  8
0
100
AcDbText
 10
15.0
 20
27.5
 30
0.0
 40
2.5
  1
hor
  7
ROMANS
100
AcDbAttribute
  2
POSITIE
 70
     9
  0
ATTRIB
  5
27F
100
AcDbEntity
  8
0
100
AcDbText
 10
15.0
 20
23.5
 30
0.0
 40
2.5
  1
1
  7
ROMANS
100
AcDbAttribute
  2
AANTAL
 70
     9
  0
ATTRIB
  5
280
100
AcDbEntity
  8
0
100
AcDbText
 10
15.0
 20
19.5
 30
0.0
 40
2.5
  1
1
  7
ROMANS
100
AcDbAttribute
  2
TEKSCHAAL
 70
     9
  0
ATTRIB
  5
281
100
AcDbEntity
  8
0
100
AcDbText
 10
15.0
 20
15.5
 30
0.0
 40
2.5
  1
1
  7
ROMANS
100
AcDbAttribute
  2
SNAPSCHAAL
 70
     9
  0
ATTRIB
  5
282
100
AcDbEntity
  8
0
100
AcDbText
 10
15.0
 20
11.5
 30
0.0
 40
2.5
  1
1
  7
ROMANS
100
AcDbAttribute
  2
BLADAANTAL
 70
     9
  0
SEQEND
  5
283
100
AcDbEntity
  8
0
  0
SPLINE
  5
10EC
100
AcDbEntity
  8
VHH-025
100
AcDbSpline
210
0.0
220
0.0
230
1.0
 70
     8
 71
     3
 72
    12
 73
     8
 74
     6
 42
0.0000001
 43
0.0000001
 44
0.0000000001
 40
0.0
 40
0.0
 40
0.0
 40
0.0
 40
21.22594818207389
 40
37.44771297309462
 40
64.35211818946531
 40
75.09390495282733
 40
86.13925381656406
 40
86.13925381656406
 40
86.13925381656406
 40
86.13925381656406
 10
349.6523946629222
 20
522.9964103083707
 30
0.0
 10
348.1054624019504
 20
529.9018213185944
 30
0.0
 10
345.3762992663024
 20
542.084638653958
 30
0.0
 10
339.7975981152957
 20
562.7968916756168
 30
0.0
 10
334.7740802684575
 20
580.0561185667034
 30
0.0
 10
329.0526395349618
 20
595.2483996830925
 30
0.0
 10
326.5144450306163
 20
602.052463943666
 30
0.0
 10
325.2276653334429
 20
605.5018968905028
 30
0.0
 11
349.6523946629222
 21
522.9964103083707
 31
0.0
 11
344.8454356167149
 21
543.6708878339618
 31
0.0
 11
340.6836153511558
 21
559.349692157391
 31
0.0
 11
332.8005919868282
 21
585.0733187035088
 31
0.0
 11
329.093627033104
 21
595.1552031355682
 31
0.0
 11
325.2276653334429
 21
605.5018968905028
 31
0.0
  0
SPLINE
  5
10ED
100
AcDbEntity
  8
VHH-025
100
AcDbSpline
210
0.0
220
0.0
230
-1.0
 70
     8
 71
     3
 72
    15
 73
    11
 74
     9
 42
0.0000001
 43
0.0000001
 44
0.0000000001
 40
0.0
 40
0.0
 40
0.0
 40
0.0
 40
1.144127971795948
 40
1.570900360916883
 40
2.189031069922019
 40
6.495683490754373
 40
30.7736953262623
 40
53.31174550632219
 40
70.84691920113034
 40
80.20316918957981
 40
80.20316918957981
 40
80.20316918957981
 40
80.20316918957981
 10
359.1757436855732
 20
535.4391161154085
 30
0.0
 10
358.8065750937394
 20
535.5005563471755
 30
0.0
 10
358.2997025336354
 20
535.5849144650059
 30
0.0
 10
357.5448534425333
 20
535.7514785805602
 30
0.0
 10
356.7933230103926
 20
537.5332512751384
 30
0.0
 10
353.7571035663348
 20
546.3927485910987
 30
0.0
 10
349.0745547859448
 20
563.1693916933078
 30
0.0
 10
342.4015632588892
 20
583.431981734949
 30
0.0
 10
336.5901350800431
 20
598.8826193113348
 30
0.0
 10
333.0290632322251
 20
607.1076602442473
 30
0.0
 10
331.7900705025185
 20
609.9693733331482
 30
0.0
 11
359.1757436855732
 21
535.4391161154085
 31
0.0
 11
358.0497646902695
 21
535.6420942373347
 31
0.0
 11
357.6464685747523
 21
535.7816897792576
 31
0.0
 11
357.3141389094216
 21
536.3028831857359
 31
0.0
 11
355.8415592505862
 21
540.3499517819231
 31
0.0
 11
348.7628166950435
 21
563.5730709203467
 31
0.0
 11
341.7069215148676
 21
584.9781649197962
 31
0.0
 11
335.4586946848194
 21
601.3623639538459
 31
0.0
 11
331.7900705025185
 21
609.9693733331482
 31
0.0
  0
SPLINE
  5
10EE
100
AcDbEntity
  8
VHH-025
100
AcDbSpline
210
0.0
220
0.0
230
1.0
 70
     8
 71
     3
 72
    11
 73
     7
 74
     5
 42
0.0000001
 43
0.0000001
 44
0.0000000001
 40
0.0
 40
0.0
 40
0.0
 40
0.0
 40
12.81919231105582
 40
61.68837483382378
 40
89.87529633437578
 40
92.55604209165261
 40
92.55604209165261
 40
92.55604209165261
 40
92.55604209165261
 10
362.2597055768237
 20
522.9964126084873
 30
0.0
 10
361.255242756957
 20
527.150711064606
 30
0.0
 10
356.4215779335388
 20
547.1419799460003
 30
0.0
 10
346.998270968723
 20
575.5865089325932
 30
0.0
 10
338.2065154144368
 20
600.7480545391977
 30
0.0
 10
333.652450359481
 20
609.9761006817145
 30
0.0
 10
333.2569462071114
 20
610.7775232621084
 30
0.0
 11
362.2597055768237
 21
522.9964126084873
 31
0.0
 11
359.1757436855732
 21
535.4391161154085
 31
0.0
 11
344.6620619160003
 21
582.1033426913968
 31
0.0
 11
334.4347804407552
 21
608.3693903062244
 31
0.0
 11
333.2569462071114
 21
610.7775232621084
 31
0.0
  0
LWPOLYLINE
  5
10F3
100
AcDbEntity
  8
VHH-025
100
AcDbPolyline
 90
        8
 70
     1
 43
0.0
 10
259.953238
 20
585.49641
 10
1.053223
 20
585.49641
 42
0.414214
 10
0.053223
 20
584.49641
 10
0.053223
 20
58.5
 42
0.414214
 10
1.053223
 20
57.5
 10
259.953238
 20
57.5
 42
0.414214
 10
260.953238
 20
58.5
 10
260.953238
 20
584.49641
 42
0.414214
  0
SPLINE
  5
10F5
100
AcDbEntity
  8
VHH-025
100
AcDbSpline
210
0.0
220
0.0
230
-1.0
 70
     8
 71
     3
 72
    17
 73
    13
 74
    11
 42
0.0000001
 43
0.0000001
 44
0.0000000001
 40
0.0
 40
0.0
 40
0.0
 40
0.0
 40
11.13317027128997
 40
24.9108757116939
 40
38.68858115209782
 40
69.76969503094167
 40
101.2676885364123
 40
124.3500733866448
 40
138.3189541165026
 40
155.7653610808148
 40
163.18673965913
 40
170.608118237446
 40
170.608118237446
 40
170.608118237446
 40
170.608118237446
 10
373.5604504577568
 20
226.9750775164721
 30
0.0
 10
373.3518672205018
 20
223.2650549182585
 30
0.0
 10
372.8851545975751
 20
214.9637436493557
 30
0.0
 10
370.2305123516946
 20
202.3141455895305
 30
0.0
 10
367.2278162675585
 20
183.0053654578478
 30
0.0
 10
361.5211770088324
 20
158.1595506817323
 30
0.0
 10
353.3326072596381
 20
130.8016485873978
 30
0.0
 10
347.5735848243755
 20
108.6918816859012
 30
0.0
 10
343.1393797517852
 20
91.06273034917393
 30
0.0
 10
341.6027579464444
 20
78.15793174574389
 30
0.0
 10
341.2505540256985
 20
67.40165401211725
 30
0.0
 10
341.0251797222001
 20
62.45904299039439
 30
0.0
 10
340.9124925704509
 20
59.98773747953283
 30
0.0
 11
373.5604504577568
 21
226.9750775164721
 31
0.0
 11
372.6865141856342
 21
215.8762615579203
 31
0.0
 11
370.3504267690023
 21
202.2980487600448
 31
0.0
 11
368.0143393523703
 21
188.7198359621693
 31
0.0
 11
361.2303828246968
 21
158.3881104296465
 31
0.0
 11
352.7386208688112
 21
128.0563848975366
 31
0.0
 11
346.8460091816359
 21
105.7388219060626
 31
0.0
 11
343.681953309986
 21
92.13300038415264
 31
0.0
 11
341.5568792829872
 21
74.81650026593661
 31
0.0
 11
341.2346859267181
 21
67.40211887273517
 31
0.0
 11
340.9124925704509
 21
59.98773747953283
 31
0.0
  0
SPLINE
  5
10F6
100
AcDbEntity
  8
VHH-025
100
AcDbSpline
210
0.0
220
0.0
230
1.0
 70
     8
 71
     3
 72
    19
 73
    15
 74
    13
 42
0.0000001
 43
0.0000001
 44
0.0000000001
 40
0.0
 40
0.0
 40
0.0
 40
0.0
 40
26.05508186693619
 40
52.06911740197477
 40
75.47336214907971
 40
108.6629070467092
 40
145.310679172909
 40
186.0115051743791
 40
220.9274686337171
 40
247.7309809828073
 40
280.0139893799226
 40
302.7356214895622
 40
316.294494998832
 40
329.8533685081019
 40
329.8533685081019
 40
329.8533685081019
 40
329.8533685081019
 10
330.292277146842
 20
59.98784349843162
 30
0.0
 10
330.7189908659334
 20
68.67099587955087
 30
0.0
 10
331.5717460731468
 20
86.02362148482592
 30
0.0
 10
336.5957154336102
 20
110.7922439373435
 30
0.0
 10
345.3455267971142
 20
136.9080002573233
 30
0.0
 10
353.4219992697156
 20
166.9618543063147
 30
0.0
 10
359.8623522594575
 20
203.2612030199761
 30
0.0
 10
365.1351547236158
 20
240.3375700413858
 30
0.0
 10
367.1066565081516
 20
274.4420193522606
 30
0.0
 10
368.3699515515427
 20
305.7498876942783
 30
0.0
 10
368.5875465917287
 20
333.0231596872812
 30
0.0
 10
368.312926488341
 20
355.879362941854
 30
0.0
 10
367.5680456307073
 20
372.4767285358995
 30
0.0
 10
367.2181912340657
 20
381.5091300216666
 30
0.0
 10
367.0432640357448
 20
386.0253307645503
 30
0.0
 11
330.292277146842
 21
59.98784349843162
 31
0.0
 11
332.2267698023825
 21
85.97101168975132
 31
0.0
 11
337.3083463772636
 21
111.483903025934
 31
0.0
 11
344.1222580564736
 21
133.874286671828
 31
0.0
 11
352.6752047875215
 21
165.9428537231888
 31
0.0
 11
359.4300664889524
 21
201.9627238674356
 31
0.0
 11
364.7996191312213
 21
242.3077996713532
 31
0.0
 11
367.1480476259421
 21
277.1446966040453
 31
0.0
 11
368.1652502441484
 21
303.9289004018314
 31
0.0
 11
368.486690970587
 21
336.2103084725399
 31
0.0
 11
368.1205459170996
 21
358.9289902900577
 31
0.0
 11
367.5819049764232
 21
372.477160527304
 31
0.0
 11
367.0432640357448
 21
386.0253307645503
 31
0.0
  0
LWPOLYLINE
  5
10F7
100
AcDbEntity
  8
VHH-025
100
AcDbPolyline
 90
        2
 70
     0
 43
0.0
 10
41.441019
 20
20.5
 10
290.634205
 20
20.5
  0
LWPOLYLINE
  5
10F8
100
AcDbEntity
  8
VHH-025
100
AcDbPolyline
 90
       10
 70
     0
 43
0.0
 10
317.472241
 20
20.5
 10
331.053223
 20
20.5
 42
0.414214
 10
332.053223
 20
21.5
 10
332.053223
 20
56.5
 42
0.414214
 10
331.053223
 20
57.5
 10
1.053223
 20
57.5
 42
0.414214
 10
0.053223
 20
56.5
 10
0.053223
 20
21.5
 42
0.414214
 10
1.053223
 20
20.5
 10
14.602983
 20
20.5
  0
LINE
  5
10F9
100
AcDbEntity
  8
VHH-025
100
AcDbLine
 10
41.501685
 20
19.9
 30
0.0
 11
290.573539
 21
19.9
 31
0.0
  0
LINE
  5
10FA
100
AcDbEntity
  8
VHH-025
100
AcDbLine
 10
-7.146777
 20
52.0
 30
0.0
 11
-7.146777
 21
26.0
 31
0.0
  0
SPLINE
  5
10FB
100
AcDbEntity
  8
VHH-025
100
AcDbSpline
210
0.0
220
0.0
230
1.0
 70
     8
 71
     3
 72
    11
 73
     7
 74
     5
 42
0.0000001
 43
0.0000001
 44
0.0000000001
 40
0.0
 40
0.0
 40
0.0
 40
0.0
 40
13.28372143960343
 40
19.56485780860576
 40
27.05038666949642
 40
37.96817867755268
 40
37.96817867755268
 40
37.96817867755268
 40
37.96817867755268
 10
43.02200221707244
 20
0.9999761779295113
 30
0.0
 10
42.71932853847904
 20
5.41782431368219
 30
0.0
 10
42.27353723586769
 20
11.92462822318931
 30
0.0
 10
41.4154064635293
 20
20.90095497708277
 30
0.0
 10
40.52384172711642
 20
29.08104528840153
 30
0.0
 10
39.7327027575088
 20
35.16444930666176
 30
0.0
 10
39.26335862222186
 20
38.77343598060543
 30
0.0
 11
43.02200221707244
 21
0.9999761779295113
 31
0.0
 11
42.03336752338509
 21
14.24685719677381
 31
0.0
 11
41.44101853535357
 21
20.50000014751322
 31
0.0
 11
40.62689111821237
 21
27.94112498693675
 31
0.0
 11
39.26335862222186
 21
38.77343598060543
 31
0.0
  0
SPLINE
  5
10FC
100
AcDbEntity
  8
VHH-025
100
AcDbSpline
210
0.0
220
0.0
230
-1.0
 70
     8
 71
     3
 72
    11
 73
     7
 74
     5
 42
0.0000001
 43
0.0000001
 44
0.0000000001
 40
0.0
 40
0.0
 40
0.0
 40
0.0
 40
13.28372143960343
 40
19.56485780860593
 40
27.05038666949639
 40
37.96817867755265
 40
37.96817867755265
 40
37.96817867755265
 40
37.96817867755265
 10
13.02199904926783
 20
0.9999761779295113
 30
0.0
 10
13.32467272786056
 20
5.417824313682254
 30
0.0
 10
13.77046403047094
 20
11.92462822318953
 30
0.0
 10
14.62859480281398
 20
20.90095497708253
 30
0.0
 10
15.52015953922262
 20
29.08104528840174
 30
0.0
 10
16.31129850883101
 20
35.16444930666181
 30
0.0
 10
16.78064264411841
 20
38.77343598060543
 30
0.0
 11
13.02199904926783
 21
0.9999761779295113
 31
0.0
 11
14.01063374295517
 21
14.24685719677381
 31
0.0
 11
14.60298273098851
 21
20.50000014751322
 31
0.0
 11
15.4171101481279
 21
27.94112498693675
 31
0.0
 11
16.78064264411841
 21
38.77343598060543
 31
0.0
  0
INSERT
  5
10FD
100
AcDbEntity
  8
VHH-050
100
AcDbBlockReference
  2
A$C605007EB
 10
54.034688
 20
7.399998
 30
0.0
 41
-1.0
  0
INSERT
  5
10FE
100
AcDbEntity
  8
VHH-050
100
AcDbBlockReference
  2
A$C7A7B4A19
 10
5.730895
 20
21.322331
 30
0.0
 41
-1.0
  0
LINE
  5
10FF
100
AcDbEntity
  8
VHH-025
100
AcDbLine
 10
5.053223
 20
19.9
 30
0.0
 11
14.542316
 21
19.9
 31
0.0
  0
LINE
  5
1100
100
AcDbEntity
  8
VHH-025
100
AcDbLine
 10
0.053223
 20
26.0
 30
0.0
 11
-7.146777
 21
26.0
 31
0.0
  0
LINE
  5
1101
100
AcDbEntity
  8
VHH-025
100
AcDbLine
 10
5.053223
 20
20.5
 30
0.0
 11
5.053223
 21
19.9
 31
0.0
  0
INSERT
  5
1102
100
AcDbEntity
  8
VHH-050
100
AcDbBlockReference
  2
A$C32063EEB
 10
8.838839
 20
-8.838837
 30
0.0
 41
-1.0
  0
LINE
  5
1103
100
AcDbEntity
  8
VHH-025
100
AcDbLine
 10
41.322001
 20
1.0
 30
0.0
 11
41.322001
 21
0.0
 31
0.0
  0
LINE
  5
1104
100
AcDbEntity
  8
VHH-025
100
AcDbLine
 10
14.722001
 20
1.0
 30
0.0
 11
14.722001
 21
0.0
 31
0.0
  0
LINE
  5
1105
100
AcDbEntity
  8
VHH-025
100
AcDbLine
 10
41.322001
 20
0.0
 30
0.0
 11
14.722001
 21
0.0
 31
0.0
  0
LINE
  5
1106
100
AcDbEntity
  8
VHH-025
100
AcDbLine
 10
43.022002
 20
0.999976
 30
0.0
 11
13.021999
 21
0.999976
 31
0.0
  0
LINE
  5
1107
100
AcDbEntity
  8
VHH-025
100
AcDbLine
 10
-7.146777
 20
39.0
 30
0.0
 11
-11.946777
 21
39.0
 31
0.0
  0
LINE
  5
1108
100
AcDbEntity
  8
VHH-025
100
AcDbLine
 10
-7.146777
 20
30.5
 30
0.0
 11
-11.946777
 21
30.5
 31
0.0
  0
LINE
  5
1109
100
AcDbEntity
  8
VHH-025
100
AcDbLine
 10
-7.146777
 20
47.5
 30
0.0
 11
-11.946777
 21
47.5
 31
0.0
  0
LINE
  5
110A
100
AcDbEntity
  8
VHH-025
100
AcDbLine
 10
-11.946777
 20
47.5
 30
0.0
 11
-11.946777
 21
30.5
 31
0.0
  0
SPLINE
  5
110B
100
AcDbEntity
  8
VHH-025
100
AcDbSpline
210
0.0
220
0.0
230
-1.0
 70
     8
 71
     3
 72
    12
 73
     8
 74
     6
 42
0.0000001
 43
0.0000001
 44
0.0000000001
 40
0.0
 40
0.0
 40
0.0
 40
0.0
 40
0.7759383456500434
 40
1.313673913555993
 40
1.814968045951748
 40
2.371579175917004
 40
2.926100784724154
 40
2.926100784724154
 40
2.926100784724154
 40
2.926100784724154
 10
16.78064264411841
 20
38.77343598060543
 30
0.0
 10
16.83206682881115
 20
39.02823095789948
 30
0.0
 10
16.91912865574038
 20
39.45960223482211
 30
0.0
 10
17.23211490033747
 20
39.99438635651732
 30
0.0
 10
17.68083092734044
 20
40.31079526506637
 30
0.0
 10
18.21315783036115
 20
40.42296048280244
 30
0.0
 10
18.57919049777293
 20
40.47435237564101
 30
0.0
 10
18.76186266332661
 20
40.49999999999954
 30
0.0
 11
16.78064264411841
 21
38.77343598060543
 31
0.0
 11
16.98357651065089
 21
39.5223673273017
 31
0.0
 11
17.2686685693443
 21
39.97830817769909
 31
0.0
 11
17.67689707887257
 21
40.26924681587343
 31
0.0
 11
18.21364769056162
 21
40.41660600578916
 31
0.0
 11
18.76186266332661
 21
40.49999999999954
 31
0.0
  0
SPLINE
  5
110C
100
AcDbEntity
  8
VHH-025
100
AcDbSpline
210
0.0
220
0.0
230
-1.0
 70
     8
 71
     3
 72
    12
 73
     8
 74
     6
 42
0.0000001
 43
0.0000001
 44
0.0000000001
 40
0.0
 40
0.0
 40
0.0
 40
0.0
 40
0.7759383456500434
 40
1.313673913555993
 40
1.814968045951748
 40
2.371579175917004
 40
2.926100784724154
 40
2.926100784724154
 40
2.926100784724154
 40
2.926100784724154
 10
39.26335862222186
 20
38.77343598060543
 30
0.0
 10
39.21193443752912
 20
39.02823095789948
 30
0.0
 10
39.12487261059988
 20
39.45960223482211
 30
0.0
 10
38.81188636600281
 20
39.99438635651732
 30
0.0
 10
38.36317033899982
 20
40.31079526506637
 30
0.0
 10
37.83084343597912
 20
40.42296048280244
 30
0.0
 10
37.46481076856734
 20
40.47435237564101
 30
0.0
 10
37.28213860301366
 20
40.49999999999954
 30
0.0
 11
39.26335862222186
 21
38.77343598060543
 31
0.0
 11
39.06042475568938
 21
39.5223673273017
 31
0.0
 11
38.77533269699597
 21
39.97830817769909
 31
0.0
 11
38.3671041874677
 21
40.26924681587343
 31
0.0
 11
37.83035357577864
 21
40.41660600578916
 31
0.0
 11
37.28213860301366
 21
40.49999999999954
 31
0.0
  0
ARC
  5
110D
100
AcDbEntity
  8
VHH-025
100
AcDbCircle
 10
27.528829
 20
-76.966469
 30
0.0
 40
117.793171
100
AcDbArc
 50
89.760116
 51
94.268287
  0
ARC
  5
110E
100
AcDbEntity
  8
VHH-025
100
AcDbCircle
 10
28.515172
 20
-76.966469
 30
0.0
 40
117.793171
100
AcDbArc
 50
85.731713
 51
90.239884
  0
LINE
  5
110F
100
AcDbEntity
  8
VHH-025
100
AcDbLine
 10
0.053223
 20
52.0
 30
0.0
 11
-7.146777
 21
52.0
 31
0.0
  0
LWPOLYLINE
  5
1110
100
AcDbEntity
  8
VHH-025
100
AcDbPolyline
 90
        4
 70
     0
 43
0.0
 10
332.053223
 20
20.5
 10
451.521261
 20
20.5
 42
-0.354119
 10
456.901073
 20
16.143514
 10
460.332483
 20
0.0
  0
LWPOLYLINE
  5
1111
100
AcDbEntity
  8
VHH-025
100
AcDbPolyline
 90
        5
 70
     0
 43
0.0
 10
332.322011
 20
57.5
 10
493.42908
 20
57.499948
 42
-0.352487
 10
497.336777
 20
54.354286
 10
503.709693
 20
25.2049
 10
509.220228
 20
0.0
  0
LWPOLYLINE
  5
1112
100
AcDbEntity
  8
VHH-025
100
AcDbPolyline
 90
        4
 70
     0
 43
0.0
 10
491.565122
 20
0.0
 10
479.162747
 20
54.935396
 42
0.350577
 10
477.208738
 20
56.508727
 10
332.367467
 20
56.508727
  0
LINE
  5
1113
100
AcDbEntity
  8
VHH-025
100
AcDbLine
 10
457.443867
 20
13.58987
 30
0.0
 11
356.979994
 21
13.58987
 31
0.0
  0
LINE
  5
1114
100
AcDbEntity
  8
VHH-025
100
AcDbLine
 10
356.979994
 20
4.5
 30
0.0
 11
454.756378
 21
4.5
 31
0.0
  0
LINE
  5
1115
100
AcDbEntity
  8
VHH-025
100
AcDbLine
 10
332.053223
 20
20.5
 30
0.0
 11
332.322011
 21
57.5
 31
0.0
  0
SPLINE
  5
1116
100
AcDbEntity
  8
VHH-025
100
AcDbSpline
210
0.0
220
0.0
230
-1.0
 70
     8
 71
     3
 72
    11
 73
     7
 74
     5
 42
0.0000001
 43
0.0000001
 44
0.0000000001
 40
0.0
 40
0.0
 40
0.0
 40
0.0
 40
13.28372143960343
 40
19.56485780860576
 40
27.05038666949622
 40
37.96817867755271
 40
37.96817867755271
 40
37.96817867755271
 40
37.96817867755271
 10
289.0532217095733
 20
0.9999761779295113
 30
0.0
 10
289.3558953881666
 20
5.417824313682205
 30
0.0
 10
289.8016866907778
 20
11.92462822318935
 30
0.0
 10
290.659817463117
 20
20.90095497708264
 30
0.0
 10
291.5513821995263
 20
29.08104528840182
 30
0.0
 10
292.3425211691358
 20
35.16444930666182
 30
0.0
 10
292.8118653044239
 20
38.77343598060543
 30
0.0
 11
289.0532217095733
 21
0.9999761779295113
 31
0.0
 11
290.0418564032607
 21
14.24685719677381
 31
0.0
 11
290.6342053912922
 21
20.50000014751322
 31
0.0
 11
291.4483328084315
 21
27.94112498693675
 31
0.0
 11
292.8118653044239
 21
38.77343598060543
 31
0.0
  0
SPLINE
  5
1117
100
AcDbEntity
  8
VHH-025
100
AcDbSpline
210
0.0
220
0.0
230
1.0
 70
     8
 71
     3
 72
    11
 73
     7
 74
     5
 42
0.0000001
 43
0.0000001
 44
0.0000000001
 40
0.0
 40
0.0
 40
0.0
 40
0.0
 40
13.28372143960343
 40
19.56485780860576
 40
27.05038666949622
 40
37.96817867755248
 40
37.96817867755248
 40
37.96817867755248
 40
37.96817867755248
 10
319.0532248773761
 20
0.9999761779295113
 30
0.0
 10
318.7505511987827
 20
5.417824313682202
 30
0.0
 10
318.3047598961716
 20
11.92462822318934
 30
0.0
 10
317.4466291238325
 20
20.90095497708265
 30
0.0
 10
316.5550643874228
 20
29.0810452884017
 30
0.0
 10
315.7639254178146
 20
35.1644493066618
 30
0.0
 10
315.2945812825273
 20
38.77343598060543
 30
0.0
 11
319.0532248773761
 21
0.9999761779295113
 31
0.0
 11
318.0645901836888
 21
14.24685719677381
 31
0.0
 11
317.4722411956572
 21
20.50000014751322
 31
0.0
 11
316.6581137785178
 21
27.94112498693675
 31
0.0
 11
315.2945812825273
 21
38.77343598060543
 31
0.0
  0
LINE
  5
1118
100
AcDbEntity
  8
VHH-025
100
AcDbLine
 10
317.532908
 20
19.9
 30
0.0
 11
327.053223
 21
19.9
 31
0.0
  0
LINE
  5
1119
100
AcDbEntity
  8
VHH-025
100
AcDbLine
 10
327.053223
 20
20.5
 30
0.0
 11
327.053223
 21
19.9
 31
0.0
  0
LINE
  5
111A
100
AcDbEntity
  8
VHH-025
100
AcDbLine
 10
317.353223
 20
1.0
 30
0.0
 11
317.353223
 21
0.0
 31
0.0
  0
LINE
  5
111B
100
AcDbEntity
  8
VHH-025
100
AcDbLine
 10
290.753223
 20
1.0
 30
0.0
 11
290.753223
 21
0.0
 31
0.0
  0
LINE
  5
111C
100
AcDbEntity
  8
VHH-025
100
AcDbLine
 10
317.353223
 20
0.0
 30
0.0
 11
290.753223
 21
0.0
 31
0.0
  0
LINE
  5
111D
100
AcDbEntity
  8
VHH-025
100
AcDbLine
 10
319.053225
 20
0.999976
 30
0.0
 11
289.053222
 21
0.999976
 31
0.0
  0
LINE
  5
111E
100
AcDbEntity
  8
VHH-025
100
AcDbLine
 10
375.332483
 20
0.0
 30
0.0
 11
359.332483
 21
0.0
 31
0.0
  0
LWPOLYLINE
  5
111F
100
AcDbEntity
  8
VHH-025
100
AcDbPolyline
 90
        2
 70
     0
 43
0.0
 10
346.147109
 20
13.58987
 10
344.928667
 20
20.5
  0
LWPOLYLINE
  5
1120
100
AcDbEntity
  8
VHH-025
100
AcDbPolyline
 90
        2
 70
     0
 43
0.0
 10
356.979994
 20
13.58987
 10
355.761552
 20
20.5
  0
ARC
  5
1121
100
AcDbEntity
  8
VHH-025
100
AcDbCircle
 10
356.979994
 20
15.5
 30
0.0
 40
11.0
100
AcDbArc
 50
190.0
 51
270.0
  0
LINE
  5
1122
100
AcDbEntity
  8
VHH-025
100
AcDbLine
 10
359.332483
 20
0.0
 30
0.0
 11
359.17534
 21
4.5
 31
0.0
  0
LINE
  5
1123
100
AcDbEntity
  8
VHH-025
100
AcDbLine
 10
375.332483
 20
0.0
 30
0.0
 11
375.489627
 21
4.5
 31
0.0
  0
LINE
  5
1124
100
AcDbEntity
  8
VHH-025
100
AcDbLine
 10
340.508916
 20
59.518456
 30
0.0
 11
260.953238
 21
59.518456
 31
0.0
  0
LINE
  5
1125
100
AcDbEntity
  8
VHH-025
100
AcDbLine
 10
260.953238
 20
57.5
 30
0.0
 11
339.869611
 21
58.188693
 31
0.0
  0
SPLINE
  5
1126
100
AcDbEntity
  8
VHH-025
100
AcDbSpline
210
0.0
220
0.0
230
-1.0
 70
     8
 71
     3
 72
    12
 73
     8
 74
     6
 42
0.0000001
 43
0.0000001
 44
0.0000000001
 40
0.0
 40
0.0
 40
0.0
 40
0.0
 40
0.7759383456500434
 40
1.313673913555993
 40
1.814968045951748
 40
2.371579175917004
 40
2.926100784725953
 40
2.926100784725953
 40
2.926100784725953
 40
2.926100784725953
 10
292.811865304422
 20
38.77343598060543
 30
0.0
 10
292.8632894891148
 20
39.02823095789948
 30
0.0
 10
292.950351316044
 20
39.45960223482211
 30
0.0
 10
293.2633375606411
 20
39.99438635651733
 30
0.0
 10
293.7120535876441
 20
40.31079526506636
 30
0.0
 10
294.2443804906654
 20
40.42296048280262
 30
0.0
 10
294.6104131580777
 20
40.47435237564105
 30
0.0
 10
294.7930853236321
 20
40.49999999999954
 30
0.0
 11
292.811865304422
 21
38.77343598060543
 31
0.0
 11
293.0147991709545
 21
39.5223673273017
 31
0.0
 11
293.2998912296479
 21
39.97830817769909
 31
0.0
 11
293.7081197391762
 21
40.26924681587343
 31
0.0
 11
294.2448703508653
 21
40.41660600578916
 31
0.0
 11
294.7930853236321
 21
40.49999999999954
 31
0.0
  0
SPLINE
  5
1127
100
AcDbEntity
  8
VHH-025
100
AcDbSpline
210
0.0
220
0.0
230
-1.0
 70
     8
 71
     3
 72
    12
 73
     8
 74
     6
 42
0.0000001
 43
0.0000001
 44
0.0000000001
 40
0.0
 40
0.0
 40
0.0
 40
0.0
 40
0.7759383456500434
 40
1.313673913555993
 40
1.814968045951748
 40
2.371579175917004
 40
2.926100784724154
 40
2.926100784724154
 40
2.926100784724154
 40
2.926100784724154
 10
315.2945812825273
 20
38.77343598060543
 30
0.0
 10
315.2431570978346
 20
39.02823095789948
 30
0.0
 10
315.1560952709054
 20
39.45960223482211
 30
0.0
 10
314.8431090263083
 20
39.99438635651732
 30
0.0
 10
314.3943929993052
 20
40.31079526506637
 30
0.0
 10
313.8620660962846
 20
40.42296048280244
 30
0.0
 10
313.4960334288728
 20
40.47435237564101
 30
0.0
 10
313.3133612633191
 20
40.49999999999954
 30
0.0
 11
315.2945812825273
 21
38.77343598060543
 31
0.0
 11
315.0916474159949
 21
39.5223673273017
 31
0.0
 11
314.8065553573014
 21
39.97830817769909
 31
0.0
 11
314.3983268477732
 21
40.26924681587343
 31
0.0
 11
313.8615762360841
 21
40.41660600578916
 31
0.0
 11
313.3133612633191
 21
40.49999999999954
 31
0.0
  0
ARC
  5
1128
100
AcDbEntity
  8
VHH-025
100
AcDbCircle
 10
303.560052
 20
-76.966469
 30
0.0
 40
117.793171
100
AcDbArc
 50
89.760116
 51
94.268287
  0
ARC
  5
1129
100
AcDbEntity
  8
VHH-025
100
AcDbCircle
 10
304.546395
 20
-76.966469
 30
0.0
 40
117.793171
100
AcDbArc
 50
85.731713
 51
90.239884
  0
SPLINE
  5
112A
100
AcDbEntity
  8
VHH-025
100
AcDbSpline
210
0.0
220
0.0
230
-1.0
 70
     8
 71
     3
 72
    15
 73
    11
 74
     9
 42
0.0000001
 43
0.0000001
 44
0.0000000001
 40
0.0
 40
0.0
 40
0.0
 40
0.0
 40
7.302496459161983
 40
12.59524837450552
 40
18.80805435543992
 40
23.02163368340659
 40
26.74921606703872
 40
34.35975472104273
 40
40.28399564046994
 40
46.1219228007465
 40
46.1219228007465
 40
46.1219228007465
 40
46.1219228007465
 10
260.9532232615674
 20
86.7797480138347
 30
0.0
 10
263.3845667202856
 20
86.60399558651967
 30
0.0
 10
267.5781154494827
 20
86.30086014690192
 30
0.0
 10
273.7417632284246
 20
85.22260429944481
 30
0.0
 10
278.9603082479537
 20
84.29320879016712
 30
0.0
 10
283.1001459877565
 20
81.88295042823813
 30
0.0
 10
286.7421289632622
 20
78.05825716618456
 30
0.0
 10
288.2309365122687
 20
72.25216336464183
 30
0.0
 10
288.8888864162071
 20
65.87033009659418
 30
0.0
 10
289.0569175394773
 20
61.9470010617454
 30
0.0
 10
289.1403165737083
 20
59.99973173384251
 30
0.0
 11
260.9532232615674
 21
86.7797480138347
 31
0.0
 11
268.2250949914759
 21
86.11166412701322
 31
0.0
 11
273.4506543584757
 21
85.27097860951334
 31
0.0
 11
279.4777915314753
 21
83.7634721735135
 31
0.0
 11
283.1119494199756
 21
81.63106808551356
 31
0.0
 11
285.6514967774746
 21
78.90241097151329
 31
0.0
 11
288.1526339050069
 21
71.71460103570052
 31
0.0
 11
288.8331045149752
 21
65.829570006013
 31
0.0
 11
289.1403165737083
 21
59.99973173384251
 31
0.0
  0
SPLINE
  5
112B
100
AcDbEntity
  8
VHH-025
100
AcDbSpline
210
0.0
220
0.0
230
-1.0
 70
     8
 71
     3
 72
    17
 73
    13
 74
    11
 42
0.0000001
 43
0.0000001
 44
0.0000000001
 40
0.0
 40
0.0
 40
0.0
 40
0.0
 40
3.164520904192445
 40
6.722782324755602
 40
8.69432228506978
 40
12.65402331178052
 40
16.36329337802572
 40
20.0729869276318
 40
22.54845777733548
 40
26.54284856401899
 40
32.44730093607204
 40
38.40507736276597
 40
38.40507736276597
 40
38.40507736276597
 40
38.40507736276597
 10
283.8035850039486
 20
60.00640783684366
 30
0.0
 10
283.7490993956972
 20
61.05976015485333
 30
0.0
 10
283.6333488934265
 20
63.2975264896796
 30
0.0
 10
283.5306378901557
 20
66.19531451152481
 30
0.0
 10
283.2094681460874
 20
69.34282192950483
 30
0.0
 10
283.0248539802003
 20
72.55275468092534
 30
0.0
 10
281.826350783889
 20
76.24669409993742
 30
0.0
 10
279.3545121531515
 20
78.66905634404814
 30
0.0
 10
276.1490067732392
 20
79.86245928885306
 30
0.0
 10
272.1169282132421
 20
80.74500794120151
 30
0.0
 10
266.8771662910223
 20
81.48532398479522
 30
0.0
 10
262.9337799630592
 20
81.78217041484588
 30
0.0
 10
260.953223483777
 20
81.93126083396601
 30
0.0
 11
283.8035850039486
 21
60.00640783684366
 31
0.0
 11
283.6481780397753
 21
63.1671104847619
 31
0.0
 11
283.461449717859
 21
66.72046901872136
 31
0.0
 11
283.2863870782857
 21
68.68422126565611
 31
0.0
 11
282.8438647570801
 21
72.61911722567447
 31
0.0
 11
281.5584305227967
 21
76.09853431100282
 31
0.0
 11
278.9013864608587
 21
78.68734544449807
 31
0.0
 11
276.6169414858213
 21
79.64090041604368
 31
0.0
 11
272.731887217029
 21
80.56907663060655
 31
0.0
 11
266.8889508002848
 21
81.41916594575423
 31
0.0
 11
260.953223483777
 21
81.93126083396601
 31
0.0
  0
ELLIPSE
  5
112C
100
AcDbEntity
  8
VHH-025
100
AcDbEllipse
 10
357.853891
 20
66.5
 30
0.0
 11
6.0
 21
0.0
 31
0.0
210
0.0
220
0.0
230
-1.0
 40
0.195141
 41
3.141592653589793
 42
6.283185307179586
  0
LINE
  5
112D
100
AcDbEntity
  8
VHH-025
100
AcDbLine
 10
368.853891
 20
88.5
 30
0.0
 11
343.236113
 21
88.5
 31
0.0
  0
LINE
  5
112E
100
AcDbEntity
  8
VHH-025
100
AcDbLine
 10
341.195484
 20
66.5
 30
0.0
 11
351.853891
 21
66.5
 31
0.0
  0
LINE
  5
112F
100
AcDbEntity
  8
VHH-025
100
AcDbLine
 10
363.853891
 20
66.5
 30
0.0
 11
368.853891
 21
66.5
 31
0.0
  0
LINE
  5
1130
100
AcDbEntity
  8
VHH-025
100
AcDbLine
 10
369.853891
 20
67.5
 30
0.0
 11
369.853891
 21
87.5
 31
0.0
  0
ARC
  5
1131
100
AcDbEntity
  8
VHH-025
100
AcDbCircle
 10
368.853891
 20
87.5
 30
0.0
 40
1.0
100
AcDbArc
 50
0.0
 51
90.0
  0
ARC
  5
1132
100
AcDbEntity
  8
VHH-025
100
AcDbCircle
 10
368.853891
 20
67.5
 30
0.0
 40
1.0
100
AcDbArc
 50
270.0
 51
0.0
  0
SPLINE
  5
1133
100
AcDbEntity
  8
VHH-025
100
AcDbSpline
210
0.0
220
0.0
230
1.0
 70
     8
 71
     3
 72
     9
 73
     5
 74
     3
 42
0.0000001
 43
0.0000001
 44
0.0000000001
 40
0.0
 40
0.0
 40
0.0
 40
0.0
 40
0.3770111014961659
 40
0.7540222471681384
 40
0.7540222471681384
 40
0.7540222471681384
 40
0.7540222471681384
 10
340.9124925712876
 20
59.9877374988132
 30
0.0
 10
340.8788173897402
 20
59.85558228654368
 30
0.0
 10
340.8114670226996
 20
59.59127184651951
 30
0.0
 10
340.5455842897421
 20
59.53042404837026
 30
0.0
 10
340.4126429154748
 20
59.50000014751322
 30
0.0
 11
340.9124925712876
 21
59.9877374988132
 31
0.0
 11
340.7618339409818
 21
59.64213751651323
 31
0.0
 11
340.4126429154748
 21
59.50000014751322
 31
0.0
  0
LINE
  5
1134
100
AcDbEntity
  8
VHH-025
100
AcDbLine
 10
339.869611
 20
58.188693
 30
0.0
 11
339.869611
 21
59.5
 31
0.0
  0
LWPOLYLINE
  5
1135
100
AcDbEntity
  8
VHH-025
100
AcDbPolyline
 90
        2
 70
     0
 43
0.0
 10
459.371193
 20
4.522512
 10
458.692764
 20
4.5
  0
LINE
  5
1136
100
AcDbEntity
  8
VHH-025
100
AcDbLine
 10
454.756378
 20
4.5
 30
0.0
 11
458.692764
 21
4.5
 31
0.0
  0
LINE
  5
1137
100
AcDbEntity
  8
VHH-025
100
AcDbLine
 10
460.332483
 20
0.0
 30
0.0
 11
509.220228
 21
0.0
 31
0.0
  0
LINE
  5
1138
100
AcDbEntity
  8
VHH-025
100
AcDbLine
 10
391.838537
 20
321.773567
 30
0.0
 11
391.838537
 21
386.5
 31
0.0
  0
SPLINE
  5
1139
100
AcDbEntity
  8
VHH-025
100
AcDbSpline
210
0.0
220
0.0
230
1.0
 70
     8
 71
     3
 72
    14
 73
    10
 74
     8
 42
0.0000001
 43
0.0000001
 44
0.0000000001
 40
0.0
 40
0.0
 40
0.0
 40
0.0
 40
24.96485783370184
 40
54.90026706652744
 40
79.89662429683959
 40
99.92029882395131
 40
119.840623845422
 40
149.7959527385391
 40
159.7351237798145
 40
159.7351237798145
 40
159.7351237798145
 40
159.7351237798145
 10
379.7462474898038
 20
386.5000000046343
 30
0.0
 10
380.0871508539158
 20
378.184879176352
 30
0.0
 10
380.8368321001818
 20
359.8990809072795
 30
0.0
 10
380.9839725990266
 20
333.2617988286648
 30
0.0
 10
380.5556133581859
 20
308.2780477330193
 30
0.0
 10
379.6393733058501
 20
286.6500373889951
 30
0.0
 10
378.3161642800235
 20
263.3836102364542
 30
0.0
 10
376.185717991749
 20
243.5529180034581
 30
0.0
 10
375.1990436379918
 20
230.2912067454869
 30
0.0
 10
374.953227167547
 20
226.9872320946014
 30
0.0
 11
379.7462474898038
 21
386.5000000046343
 31
0.0
 11
380.6348450249734
 21
361.550961524616
 31
0.0
 11
380.8697958594148
 21
331.6164743226922
 31
0.0
 11
380.4106963906033
 21
306.624333508766
 31
0.0
 11
379.589520553005
 21
286.617504379405
 31
0.0
 11
378.3733631498325
 21
266.73433787777
 31
0.0
 11
375.717630788884
 21
236.8969650925896
 31
0.0
 11
374.953227167547
 21
226.9872320946014
 31
0.0
  0
LINE
  5
113A
100
AcDbEntity
  8
VHH-025
100
AcDbLine
 10
391.835853
 20
257.779343
 30
0.0
 11
391.835853
 21
386.5
 31
0.0
  0
LINE
  5
113B
100
AcDbEntity
  8
VHH-025
100
AcDbLine
 10
385.979709
 20
386.5
 30
0.0
 11
385.979709
 21
259.243379
 31
0.0
  0
LINE
  5
113C
100
AcDbEntity
  8
VHH-025
100
AcDbLine
 10
393.72841
 20
257.220053
 30
0.0
 11
393.72841
 21
386.5
 31
0.0
  0
LINE
  5
113D
100
AcDbEntity
  8
VHH-025
100
AcDbLine
 10
452.869276
 20
258.800004
 30
0.0
 11
423.037177
 21
258.800004
 31
0.0
  0
LINE
  5
113E
100
AcDbEntity
  8
VHH-025
100
AcDbLine
 10
422.080817
 20
222.500004
 30
0.0
 11
453.825637
 21
222.500004
 31
0.0
  0
LINE
  5
113F
100
AcDbEntity
  8
VHH-025
100
AcDbLine
 10
422.863712
 20
248.500004
 30
0.0
 11
453.953227
 21
248.500004
 31
0.0
  0
SPLINE
  5
1140
100
AcDbEntity
  8
VHH-025
100
AcDbSpline
210
0.0
220
0.0
230
1.0
 70
     8
 71
     3
 72
    15
 73
    11
 74
     9
 42
0.0000001
 43
0.0000001
 44
0.0000000001
 40
0.0
 40
0.0
 40
0.0
 40
0.0
 40
0.1323596920370364
 40
0.2943652284169482
 40
1.223465955565874
 40
2.382258466632486
 40
6.155798085586301
 40
8.743523072128317
 40
10.53077697569746
 40
11.83032934886077
 40
11.83032934886077
 40
11.83032934886077
 40
11.83032934886077
 10
420.0744911020701
 20
250.7196831954583
 30
0.0
 10
420.1166039281162
 20
250.7052851838764
 30
0.0
 10
420.210261985698
 20
250.6732643027239
 30
0.0
 10
420.5231155346842
 20
250.4037409648907
 30
0.0
 10
421.0930618500159
 20
249.9240256647146
 30
0.0
 10
422.6045422802614
 20
248.6806731189951
 30
0.0
 10
424.6003853861778
 20
247.1620829824494
 30
0.0
 10
426.8539026744179
 20
245.6499416151212
 30
0.0
 10
428.4826809314242
 20
244.6697343940801
 30
0.0
 10
429.4555426884492
 20
244.3280890519206
 30
0.0
 10
429.865119672477
 20
244.1842555957914
 30
0.0
 11
420.0744911020701
 21
250.7196831954583
 31
0.0
 11
420.1971123634502
 21
250.6698523382142
 31
0.0
 11
420.3269034630339
 21
250.5728984095335
 31
0.0
 11
421.0367564284279
 21
249.9734512236114
 31
0.0
 11
421.9323317426042
 21
249.2380976077624
 31
0.0
 11
424.9400691385256
 21
246.9592564520453
 31
0.0
 11
427.0913143340824
 21
245.5210406425899
 31
0.0
 11
428.6517815928784
 21
244.6497092188201
 31
0.0
 11
429.865119672477
 21
244.1842555957914
 31
0.0
  0
LINE
  5
1141
100
AcDbEntity
  8
VHH-025
100
AcDbLine
 10
421.09601
 20
223.326356
 30
0.0
 11
428.160871
 21
223.326356
 31
0.0
  0
LINE
  5
1142
100
AcDbEntity
  8
VHH-025
100
AcDbLine
 10
428.759178
 20
250.500004
 30
0.0
 11
427.217746
 21
250.500004
 31
0.0
  0
LINE
  5
1143
100
AcDbEntity
  8
VHH-025
100
AcDbLine
 10
427.217746
 20
250.500004
 30
0.0
 11
427.398229
 21
258.050004
 31
0.0
  0
LINE
  5
1144
100
AcDbEntity
  8
VHH-025
100
AcDbLine
 10
373.56045
 20
226.975078
 30
0.0
 11
429.86512
 21
227.466441
 31
0.0
  0
LINE
  5
1145
100
AcDbEntity
  8
VHH-025
100
AcDbLine
 10
429.86512
 20
243.385705
 30
0.0
 11
376.996641
 21
251.070862
 31
0.0
  0
LINE
  5
1146
100
AcDbEntity
  8
VHH-025
100
AcDbLine
 10
421.09601
 20
223.326356
 30
0.0
 11
420.380595
 21
227.383671
 31
0.0
  0
ARC
  5
1147
100
AcDbEntity
  8
VHH-025
100
AcDbCircle
 10
422.080817
 20
223.500004
 30
0.0
 40
1.0
100
AcDbArc
 50
190.000001
 51
270.000001
  0
LINE
  5
1148
100
AcDbEntity
  8
VHH-025
100
AcDbLine
 10
374.953227
 20
226.987232
 30
0.0
 11
374.953227
 21
224.19934
 31
0.0
  0
LINE
  5
1149
100
AcDbEntity
  8
VHH-025
100
AcDbLine
 10
373.337053
 20
224.19934
 30
0.0
 11
374.953227
 21
224.19934
 31
0.0
  0
ARC
  5
114A
100
AcDbEntity
  8
VHH-025
100
AcDbCircle
 10
374.953227
 20
225.19934
 30
0.0
 40
1.0
100
AcDbArc
 50
270.000001
 51
0.000001
  0
LINE
  5
114B
100
AcDbEntity
  8
VHH-025
100
AcDbLine
 10
375.953227
 20
226.995959
 30
0.0
 11
375.953227
 21
225.19934
 31
0.0
  0
ARC
  5
114C
100
AcDbEntity
  8
VHH-025
100
AcDbCircle
 10
423.037177
 20
258.050004
 30
0.0
 40
0.75
100
AcDbArc
 50
90.0
 51
178.0
  0
LINE
  5
114D
100
AcDbEntity
  8
VHH-025
100
AcDbLine
 10
423.539188
 20
250.500004
 30
0.0
 11
422.802746
 21
250.500004
 31
0.0
  0
LINE
  5
114E
100
AcDbEntity
  8
VHH-025
100
AcDbLine
 10
425.746614
 20
250.500004
 30
0.0
 11
424.570735
 21
250.500004
 31
0.0
  0
LINE
  5
114F
100
AcDbEntity
  8
VHH-025
100
AcDbLine
 10
421.977701
 20
249.200845
 30
0.0
 11
422.287634
 21
258.076179
 31
0.0
  0
LINE
  5
1150
100
AcDbEntity
  8
VHH-025
100
AcDbLine
 10
424.570735
 20
250.500004
 30
0.0
 11
424.793343
 21
258.050004
 31
0.0
  0
LINE
  5
1151
100
AcDbEntity
  8
VHH-025
100
AcDbLine
 10
422.802746
 20
250.500004
 30
0.0
 11
423.053494
 21
258.050004
 31
0.0
  0
LINE
  5
1152
100
AcDbEntity
  8
VHH-025
100
AcDbLine
 10
420.074491
 20
250.719683
 30
0.0
 11
377.924414
 21
261.257202
 31
0.0
  0
LINE
  5
1153
100
AcDbEntity
  8
VHH-025
100
AcDbLine
 10
391.838537
 20
257.770171
 30
0.0
 11
391.838537
 21
321.773567
 31
0.0
  0
LINE
  5
1154
100
AcDbEntity
  8
VHH-025
100
AcDbLine
 10
453.953227
 20
248.500004
 30
0.0
 11
454.825028
 21
223.534904
 31
0.0
  0
LINE
  5
1155
100
AcDbEntity
  8
VHH-025
100
AcDbLine
 10
444.953227
 20
202.500004
 30
0.0
 11
430.953227
 21
202.500004
 31
0.0
  0
LINE
  5
1156
100
AcDbEntity
  8
VHH-025
100
AcDbLine
 10
445.953227
 20
206.000004
 30
0.0
 11
429.953227
 21
206.000004
 31
0.0
  0
LINE
  5
1157
100
AcDbEntity
  8
VHH-025
100
AcDbLine
 10
445.953227
 20
208.000004
 30
0.0
 11
429.953227
 21
208.000004
 31
0.0
  0
LINE
  5
1158
100
AcDbEntity
  8
VHH-025
100
AcDbLine
 10
445.953227
 20
220.500004
 30
0.0
 11
429.953227
 21
220.500004
 31
0.0
  0
LINE
  5
1159
100
AcDbEntity
  8
VHH-025
100
AcDbLine
 10
429.953227
 20
220.500004
 30
0.0
 11
429.953227
 21
208.000004
 31
0.0
  0
LINE
  5
115A
100
AcDbEntity
  8
VHH-025
100
AcDbLine
 10
429.953227
 20
206.000004
 30
0.0
 11
429.953227
 21
203.500004
 31
0.0
  0
ARC
  5
115B
100
AcDbEntity
  8
VHH-025
100
AcDbCircle
 10
430.953227
 20
203.500004
 30
0.0
 40
1.0
100
AcDbArc
 50
180.000001
 51
270.000001
  0
ARC
  5
115C
100
AcDbEntity
  8
VHH-025
100
AcDbCircle
 10
429.203227
 20
207.000004
 30
0.0
 40
1.25
100
AcDbArc
 50
306.869898
 51
53.130103
  0
ARC
  5
115D
100
AcDbEntity
  8
VHH-025
100
AcDbCircle
 10
427.953227
 20
220.500004
 30
0.0
 40
2.0
100
AcDbArc
 50
0.000001
 51
90.000001
  0
LINE
  5
115E
100
AcDbEntity
  8
VHH-025
100
AcDbLine
 10
428.139463
 20
223.534903
 30
0.0
 11
428.13857
 21
223.500004
 31
0.0
  0
LINE
  5
115F
100
AcDbEntity
  8
VHH-025
100
AcDbLine
 10
428.13857
 20
223.500004
 30
0.0
 11
428.1596
 21
223.33134
 31
0.0
  0
LINE
  5
1160
100
AcDbEntity
  8
VHH-025
100
AcDbLine
 10
428.1596
 20
223.33134
 30
0.0
 11
428.160871
 21
223.326356
 31
0.0
  0
LINE
  5
1161
100
AcDbEntity
  8
VHH-025
100
AcDbLine
 10
428.341208
 20
227.453142
 30
0.0
 11
428.139463
 21
223.534903
 31
0.0
  0
LINE
  5
1162
100
AcDbEntity
  8
VHH-025
100
AcDbLine
 10
429.86512
 20
227.466441
 30
0.0
 11
429.86512
 21
244.184256
 31
0.0
  0
LINE
  5
1163
100
AcDbEntity
  8
VHH-025
100
AcDbLine
 10
445.953227
 20
220.500004
 30
0.0
 11
445.953227
 21
208.000004
 31
0.0
  0
LINE
  5
1164
100
AcDbEntity
  8
VHH-025
100
AcDbLine
 10
445.953227
 20
206.000004
 30
0.0
 11
445.953227
 21
203.500004
 31
0.0
  0
ARC
  5
1165
100
AcDbEntity
  8
VHH-025
100
AcDbCircle
 10
444.953227
 20
203.500004
 30
0.0
 40
1.0
100
AcDbArc
 50
270.000001
 51
0.000001
  0
ARC
  5
1166
100
AcDbEntity
  8
VHH-025
100
AcDbCircle
 10
446.703227
 20
207.000004
 30
0.0
 40
1.25
100
AcDbArc
 50
126.869898
 51
233.130103
  0
ARC
  5
1167
100
AcDbEntity
  8
VHH-025
100
AcDbCircle
 10
447.953227
 20
220.500004
 30
0.0
 40
2.0
100
AcDbArc
 50
90.000001
 51
180.000001
  0
ARC
  5
1168
100
AcDbEntity
  8
VHH-025
100
AcDbCircle
 10
453.825637
 20
223.500004
 30
0.0
 40
1.0
100
AcDbArc
 50
270.000001
 51
2.000001
  0
ARC
  5
1169
100
AcDbEntity
  8
VHH-025
100
AcDbCircle
 10
472.707165
 20
230.669429
 30
0.0
 40
62.5
100
AcDbArc
 50
108.113958
 51
125.566996
  0
ARC
  5
116A
100
AcDbEntity
  8
VHH-025
100
AcDbCircle
 10
430.61099
 20
328.224912
 30
0.0
 40
46.241633
100
AcDbArc
 50
295.720623
 51
310.187569
  0
ARC
  5
116B
100
AcDbEntity
  8
VHH-025
100
AcDbCircle
 10
430.61099
 20
328.224912
 30
0.0
 40
49.329327
100
AcDbArc
 50
295.720623
 51
303.410632
  0
ARC
  5
116C
100
AcDbEntity
  8
VHH-025
100
AcDbCircle
 10
430.61099
 20
328.224912
 30
0.0
 40
49.329327
100
AcDbArc
 50
303.410632
 51
328.85969
  0
ARC
  5
116D
100
AcDbEntity
  8
VHH-025
100
AcDbCircle
 10
435.582806
 20
344.540201
 30
0.0
 40
61.5
100
AcDbArc
 50
291.642131
 51
307.663948
  0
ARC
  5
116E
100
AcDbEntity
  8
VHH-025
100
AcDbCircle
 10
434.986219
 20
347.216529
 30
0.0
 40
60.0
100
AcDbArc
 50
287.747333
 51
295.081486
  0
LINE
  5
116F
100
AcDbEntity
  8
VHH-025
100
AcDbLine
 10
477.205881
 20
308.638605
 30
0.0
 11
472.509715
 21
306.481968
 31
0.0
  0
LINE
  5
1170
100
AcDbEntity
  8
VHH-025
100
AcDbLine
 10
471.748206
 20
305.309202
 30
0.0
 11
473.157824
 21
304.238722
 31
0.0
  0
ARC
  5
1171
100
AcDbEntity
  8
VHH-025
100
AcDbCircle
 10
474.596368
 20
301.938194
 30
0.0
 40
5.0
100
AcDbArc
 50
114.666174
 51
149.136447
  0
ARC
  5
1172
100
AcDbEntity
  8
VHH-025
100
AcDbCircle
 10
477.11165
 20
300.129282
 30
0.0
 40
5.0
100
AcDbArc
 50
114.666174
 51
148.85969
  0
ARC
  5
1173
100
AcDbEntity
  8
VHH-025
100
AcDbCircle
 10
477.623212
 20
307.72985
 30
0.0
 40
1.0
100
AcDbArc
 50
72.379007
 51
114.666174
  0
ARC
  5
1174
100
AcDbEntity
  8
VHH-025
100
AcDbCircle
 10
480.093126
 20
306.945351
 30
0.0
 40
1.0
100
AcDbArc
 50
339.8871
 51
72.379007
  0
LINE
  5
1175
100
AcDbEntity
  8
VHH-025
100
AcDbLine
 10
480.395845
 20
307.898431
 30
0.0
 11
477.925931
 21
308.68293
 31
0.0
  0
LINE
  5
1176
100
AcDbEntity
  8
VHH-025
100
AcDbLine
 10
480.979819
 20
307.40771
 30
0.0
 11
475.024997
 21
304.673056
 31
0.0
  0
ARC
  5
1177
100
AcDbEntity
  8
VHH-025
100
AcDbCircle
 10
458.495738
 20
314.854387
 30
0.0
 40
24.0
100
AcDbArc
 50
307.665933
 51
339.8871
  0
ARC
  5
1178
100
AcDbEntity
  8
VHH-025
100
AcDbCircle
 10
430.61099
 20
328.224912
 30
0.0
 40
46.241633
100
AcDbArc
 50
310.187569
 51
329.136447
  0
ARC
  5
1179
100
AcDbEntity
  8
VHH-025
100
AcDbCircle
 10
443.822734
 20
262.300004
 30
0.0
 40
3.5
100
AcDbArc
 50
336.978578
 51
84.0
  0
ARC
  5
117A
100
AcDbEntity
  8
VHH-025
100
AcDbCircle
 10
434.092716
 20
266.434446
 30
0.0
 40
14.071985
100
AcDbArc
 50
336.978578
 51
37.324284
  0
LINE
  5
117B
100
AcDbEntity
  8
VHH-025
100
AcDbLine
 10
428.322734
 20
271.800004
 30
0.0
 11
428.322734
 21
260.800004
 31
0.0
  0
ARC
  5
117C
100
AcDbEntity
  8
VHH-025
100
AcDbCircle
 10
430.322734
 20
260.800004
 30
0.0
 40
2.0
100
AcDbArc
 50
180.0
 51
270.0
  0
LINE
  5
117D
100
AcDbEntity
  8
VHH-025
100
AcDbLine
 10
436.532823
 20
250.500004
 30
0.0
 11
434.567732
 21
250.500004
 31
0.0
  0
LINE
  5
117E
100
AcDbEntity
  8
VHH-025
100
AcDbLine
 10
432.427871
 20
250.500004
 30
0.0
 11
430.617741
 21
250.500004
 31
0.0
  0
LINE
  5
117F
100
AcDbEntity
  8
VHH-025
100
AcDbLine
 10
434.567732
 20
250.500004
 30
0.0
 11
434.633299
 21
258.050004
 31
0.0
  0
LINE
  5
1180
100
AcDbEntity
  8
VHH-025
100
AcDbLine
 10
430.617741
 20
250.500004
 30
0.0
 11
430.744756
 21
258.050004
 31
0.0
  0
ARC
  5
1181
100
AcDbEntity
  8
VHH-025
100
AcDbCircle
 10
443.822734
 20
262.300004
 30
0.0
 40
3.5
100
AcDbArc
 50
270.0
 51
336.978578
  0
LINE
  5
1182
100
AcDbEntity
  8
VHH-025
100
AcDbLine
 10
443.478583
 20
250.500004
 30
0.0
 11
445.288712
 21
250.500004
 31
0.0
  0
LINE
  5
1183
100
AcDbEntity
  8
VHH-025
100
AcDbLine
 10
447.147275
 20
250.500004
 30
0.0
 11
448.688707
 21
250.500004
 31
0.0
  0
LINE
  5
1184
100
AcDbEntity
  8
VHH-025
100
AcDbLine
 10
445.288712
 20
250.500004
 30
0.0
 11
445.161697
 21
258.050004
 31
0.0
  0
LINE
  5
1185
100
AcDbEntity
  8
VHH-025
100
AcDbLine
 10
448.688707
 20
250.500004
 30
0.0
 11
448.508225
 21
258.050004
 31
0.0
  0
LINE
  5
1186
100
AcDbEntity
  8
VHH-025
100
AcDbLine
 10
439.373631
 20
250.500004
 30
0.0
 11
441.338722
 21
250.500004
 31
0.0
  0
LINE
  5
1187
100
AcDbEntity
  8
VHH-025
100
AcDbLine
 10
441.338722
 20
250.500004
 30
0.0
 11
441.273154
 21
258.050004
 31
0.0
  0
ARC
  5
1188
100
AcDbEntity
  8
VHH-025
100
AcDbCircle
 10
452.869276
 20
258.050004
 30
0.0
 40
0.75
100
AcDbArc
 50
2.0
 51
90.0
  0
LINE
  5
1189
100
AcDbEntity
  8
VHH-025
100
AcDbLine
 10
450.159839
 20
250.500004
 30
0.0
 11
451.335719
 21
250.500004
 31
0.0
  0
LINE
  5
118A
100
AcDbEntity
  8
VHH-025
100
AcDbLine
 10
452.367265
 20
250.500004
 30
0.0
 11
453.103708
 21
250.500004
 31
0.0
  0
LINE
  5
118B
100
AcDbEntity
  8
VHH-025
100
AcDbLine
 10
453.953227
 20
248.500004
 30
0.0
 11
453.618819
 21
258.076179
 31
0.0
  0
LINE
  5
118C
100
AcDbEntity
  8
VHH-025
100
AcDbLine
 10
451.335719
 20
250.500004
 30
0.0
 11
451.11311
 21
258.050004
 31
0.0
  0
LINE
  5
118D
100
AcDbEntity
  8
VHH-025
100
AcDbLine
 10
453.103708
 20
250.500004
 30
0.0
 11
452.85296
 21
258.050004
 31
0.0
  0
ARC
  5
118E
100
AcDbEntity
  8
VHH-025
100
AcDbCircle
 10
474.00933
 20
238.132826
 30
0.0
 40
50.670673
100
AcDbArc
 50
126.175476
 51
136.549309
  0
ARC
  5
118F
100
AcDbEntity
  8
VHH-025
100
AcDbCircle
 10
440.127985
 20
270.22965
 30
0.0
 40
4.0
100
AcDbArc
 50
136.549309
 51
264.0
  0
ARC
  5
1190
100
AcDbEntity
  8
VHH-025
100
AcDbCircle
 10
440.536317
 20
272.197749
 30
0.0
 40
6.0
100
AcDbArc
 50
134.497865
 51
264.0
  0
ARC
  5
1191
100
AcDbEntity
  8
VHH-025
100
AcDbCircle
 10
449.259074
 20
277.998276
 30
0.0
 40
5.0
100
AcDbArc
 50
165.277858
 51
217.324284
  0
LINE
  5
1192
100
AcDbEntity
  8
VHH-025
100
AcDbLine
 10
444.188583
 20
265.780831
 30
0.0
 11
439.909147
 21
266.230618
 31
0.0
  0
ARC
  5
1193
100
AcDbEntity
  8
VHH-025
100
AcDbCircle
 10
474.00933
 20
238.132826
 30
0.0
 40
53.758367
100
AcDbArc
 50
115.720623
 51
134.497865
  0
ARC
  5
1194
100
AcDbEntity
  8
VHH-025
100
AcDbCircle
 10
474.00933
 20
238.132826
 30
0.0
 40
50.670673
100
AcDbArc
 50
115.720623
 51
126.175476
  0
ARC
  5
1195
100
AcDbEntity
  8
VHH-025
100
AcDbCircle
 10
450.980428
 20
261.234548
 30
0.0
 40
25.0
100
AcDbArc
 50
125.807709
 51
155.0
  0
LWPOLYLINE
  5
1196
100
AcDbEntity
  8
VHH-025
100
AcDbPolyline
 90
       42
 70
     0
 43
0.0
 10
355.940095
 20
491.622944
 10
356.313029
 20
489.418153
 10
356.390894
 20
488.950872
 10
356.429588
 20
488.717853
 10
356.448875
 20
488.601498
 10
356.458504
 20
488.54336
 10
356.463315
 20
488.514301
 10
356.468123
 20
488.485248
 10
357.787079
 20
480.169884
 10
358.404677
 20
476.006986
 10
358.70301
 20
473.924281
 10
358.84956
 20
472.88262
 10
358.922181
 20
472.361714
 10
358.958328
 20
472.101242
 10
358.97636
 20
471.971001
 10
358.985366
 20
471.905879
 10
358.989866
 20
471.873318
 10
358.992116
 20
471.857038
 10
358.994365
 20
471.840757
 10
359.491212
 20
468.160226
 10
360.06697
 20
463.715575
 10
360.222632
 20
462.48499
 10
360.242412
 20
462.327808
 10
360.246808
 20
462.292854
 10
360.25046
 20
462.263808
 10
360.257774
 20
462.205615
 10
360.287163
 20
461.97153
 10
360.346579
 20
461.497041
 10
360.592532
 20
459.514836
 10
360.851122
 20
457.397797
 10
360.98488
 20
456.288699
 10
361.052824
 20
455.721503
 10
361.087055
 20
455.434743
 10
361.104235
 20
455.290572
 10
361.112841
 20
455.218289
 10
361.117148
 20
455.182098
 10
361.119303
 20
455.16399
 10
361.121458
 20
455.145874
 10
362.707876
 20
440.996137
 10
364.259301
 20
425.093822
 10
365.698298
 20
407.437359
 10
366.007505
 20
402.588172
  0
LWPOLYLINE
  5
1197
100
AcDbEntity
  8
VHH-025
100
AcDbPolyline
 90
       10
 70
     0
 43
0.0
 10
362.689167
 20
521.613269
 10
367.805543
 20
497.054637
 10
371.763179
 20
472.417137
 10
372.067117
 20
470.165597
 10
372.440075
 20
467.3
 10
373.055133
 20
462.37823
 10
373.802738
 20
456.114159
 10
376.147015
 20
433.801458
 10
377.996286
 20
411.468052
 10
378.533235
 20
403.114759
  0
LINE
  5
1198
100
AcDbEntity
  8
VHH-025
100
AcDbLine
 10
260.953238
 20
386.5
 30
0.0
 11
394.198478
 21
386.5
 31
0.0
  0
LINE
  5
1199
100
AcDbEntity
  8
VHH-025
100
AcDbLine
 10
260.916386
 20
387.500322
 30
0.0
 11
379.705452
 21
387.500321
 31
0.0
  0
SPLINE
  5
119A
100
AcDbEntity
  8
VHH-025
100
AcDbSpline
210
0.0
220
0.0
230
1.0
 70
     8
 71
     3
 72
    16
 73
    12
 74
    10
 42
0.0000001
 43
0.0000001
 44
0.0000000001
 40
0.0
 40
0.0
 40
0.0
 40
0.0
 40
3.118083428797114
 40
6.320178756713501
 40
10.06862747037444
 40
14.74762083375841
 40
19.06180419313177
 40
22.0755857405445
 40
24.75954502662292
 40
27.43874846259851
 40
30.34745987100871
 40
30.34745987100871
 40
30.34745987100871
 40
30.34745987100871
 10
260.9532232909641
 20
372.6328993309412
 30
0.0
 10
261.9909317751786
 20
372.6956379791699
 30
0.0
 10
264.0943081816668
 20
372.8228056707391
 30
0.0
 10
267.4295199335928
 20
373.1940057179964
 30
0.0
 10
271.2731744264449
 20
373.761965573551
 30
0.0
 10
275.3895866044442
 20
374.6826885703963
 30
0.0
 10
279.3818327948534
 20
375.6357564231924
 30
0.0
 10
281.9109601228475
 20
377.9550526010382
 30
0.0
 10
283.3394357447799
 20
380.4053804726945
 30
0.0
 10
283.8312605613925
 20
383.1593228168738
 30
0.0
 10
283.8282201037025
 20
385.0214485079417
 30
0.0
 10
283.8266374357099
 20
385.9907521556065
 30
0.0
 11
260.9532232909641
 21
372.6328993309412
 31
0.0
 11
264.063956036487
 21
372.846876093396
 31
0.0
 11
267.2474499318977
 21
373.1915224439449
 31
0.0
 11
270.9532176877946
 21
373.755573060735
 31
0.0
 11
275.5303925015086
 21
374.7263715049516
 31
0.0
 11
279.6113159012238
 21
376.1257436012688
 31
0.0
 11
281.8634207862378
 21
378.1284674470402
 31
0.0
 11
283.1910646645719
 21
380.4610623929424
 31
0.0
 11
283.7405376650294
 21
383.0833153313737
 31
0.0
 11
283.8266374357099
 21
385.9907521556065
 31
0.0
  0
SPLINE
  5
119B
100
AcDbEntity
  8
VHH-025
100
AcDbSpline
210
0.0
220
0.0
230
1.0
 70
     8
 71
     3
 72
    16
 73
    12
 74
    10
 42
0.0000001
 43
0.0000001
 44
0.0000000001
 40
0.0
 40
0.0
 40
0.0
 40
0.0
 40
3.194959215303493
 40
6.418886637236189
 40
9.645058705998168
 40
12.33323980390375
 40
16.09204151732409
 40
21.4883039725123
 40
28.43654563334902
 40
33.42751231049396
 40
38.15289330752381
 40
38.15289330752381
 40
38.15289330752381
 40
38.15289330752381
 10
289.0653833477426
 20
386.0001238116715
 30
0.0
 10
289.0507773449256
 20
384.9336119096559
 30
0.0
 10
289.0214329088974
 20
382.790918205301
 30
0.0
 10
288.3898199887875
 20
379.6178458988858
 30
0.0
 10
287.1900462144992
 20
376.7820280181335
 30
0.0
 10
285.2172851887416
 20
374.206614882616
 30
0.0
 10
282.1299941569343
 20
371.6390355895678
 30
0.0
 10
276.9310324471306
 20
369.9766578205085
 30
0.0
 10
271.2702360737941
 20
368.9053294406615
 30
0.0
 10
265.7579494214254
 20
368.1563576141574
 30
0.0
 10
262.5253454281895
 20
367.9496848894451
 30
0.0
 10
260.9532232694527
 20
367.8491731129311
 30
0.0
 11
289.0653833477426
 21
386.0001238116715
 31
0.0
 11
288.9246955052876
 21
382.8082636458061
 31
0.0
 11
288.2839280954758
 21
379.6486552605133
 31
0.0
 11
286.9915605394744
 21
376.6926491175131
 31
0.0
 11
285.3720332374741
 21
374.5470841725132
 31
0.0
 11
282.4609007624749
 21
372.1692914915133
 31
0.0
 11
277.4233770599512
 21
370.2346071679644
 31
0.0
 11
270.6139773889062
 21
368.8525296385328
 31
0.0
 11
265.6651796464448
 21
368.2051122487605
 31
0.0
 11
260.9532232694527
 21
367.8491731129311
 31
0.0
  0
SPLINE
  5
119C
100
AcDbEntity
  8
VHH-025
100
AcDbSpline
210
0.0
220
0.0
230
-1.0
 70
     8
 71
     3
 72
    16
 73
    12
 74
    10
 42
0.0000001
 43
0.0000001
 44
0.0000000001
 40
0.0
 40
0.0
 40
0.0
 40
0.0
 40
3.194959215303493
 40
6.418886637236189
 40
9.645058705998168
 40
12.33323980390375
 40
16.09204151732409
 40
21.4883039725123
 40
28.43654563334902
 40
33.42751231049396
 40
38.15289330752381
 40
38.15289330752381
 40
38.15289330752381
 40
38.15289330752381
 10
289.0653833477426
 20
387.7818707921601
 30
0.0
 10
289.0507773449256
 20
388.8483826941758
 30
0.0
 10
289.0214329088974
 20
390.9910763985307
 30
0.0
 10
288.3898199887875
 20
394.1641487049457
 30
0.0
 10
287.1900462144992
 20
396.999966585698
 30
0.0
 10
285.2172851887416
 20
399.5753797212156
 30
0.0
 10
282.1299941569343
 20
402.142959014264
 30
0.0
 10
276.9310324471306
 20
403.805336783323
 30
0.0
 10
271.2702360737941
 20
404.8766651631699
 30
0.0
 10
265.7579494214254
 20
405.6256369896743
 30
0.0
 10
262.5253454281895
 20
405.8323097143865
 30
0.0
 10
260.9532232694527
 20
405.9328214909005
 30
0.0
 11
289.0653833477426
 21
387.7818707921601
 31
0.0
 11
288.9246955052876
 21
390.9737309580254
 31
0.0
 11
288.2839280954758
 21
394.1333393433183
 31
0.0
 11
286.9915605394744
 21
397.0893454863185
 31
0.0
 11
285.3720332374741
 21
399.2349104313184
 31
0.0
 11
282.4609007624749
 21
401.6127031123183
 31
0.0
 11
277.4233770599512
 21
403.5473874358672
 31
0.0
 11
270.6139773889062
 21
404.9294649652988
 31
0.0
 11
265.6651796464448
 21
405.5768823550711
 31
0.0
 11
260.9532232694527
 21
405.9328214909005
 31
0.0
  0
SPLINE
  5
119D
100
AcDbEntity
  8
VHH-025
100
AcDbSpline
210
0.0
220
0.0
230
-1.0
 70
     8
 71
     3
 72
    16
 73
    12
 74
    10
 42
0.0000001
 43
0.0000001
 44
0.0000000001
 40
0.0
 40
0.0
 40
0.0
 40
0.0
 40
3.118083428797114
 40
6.320178756713501
 40
10.06862747037444
 40
14.74762083375841
 40
19.06180419313177
 40
22.0755857405445
 40
24.75954502662292
 40
27.43874846259851
 40
30.34745987100871
 40
30.34745987100871
 40
30.34745987100871
 40
30.34745987100871
 10
260.9532232909641
 20
401.1490952728904
 30
0.0
 10
261.9909317751786
 20
401.0863566246615
 30
0.0
 10
264.0943081816668
 20
400.9591889330923
 30
0.0
 10
267.4295199335928
 20
400.5879888858353
 30
0.0
 10
271.2731744264449
 20
400.0200290302804
 30
0.0
 10
275.3895866044442
 20
399.0993060334354
 30
0.0
 10
279.3818327948534
 20
398.1462381806392
 30
0.0
 10
281.9109601228475
 20
395.8269420027935
 30
0.0
 10
283.3394357447799
 20
393.376614131137
 30
0.0
 10
283.8312605613925
 20
390.6226717869577
 30
0.0
 10
283.8282201037025
 20
388.7605460958898
 30
0.0
 10
283.8266374357099
 20
387.7912424482251
 30
0.0
 11
260.9532232909641
 21
401.1490952728904
 31
0.0
 11
264.063956036487
 21
400.9351185104355
 31
0.0
 11
267.2474499318977
 21
400.5904721598867
 31
0.0
 11
270.9532176877946
 21
400.0264215430965
 31
0.0
 11
275.5303925015086
 21
399.05562309888
 31
0.0
 11
279.6113159012238
 21
397.6562510025628
 31
0.0
 11
281.8634207862378
 21
395.6535271567913
 31
0.0
 11
283.1910646645719
 21
393.3209322108891
 31
0.0
 11
283.7405376650294
 21
390.6986792724578
 31
0.0
 11
283.8266374357099
 21
387.7912424482251
 31
0.0
  0
SPLINE
  5
119E
100
AcDbEntity
  8
VHH-025
100
AcDbSpline
210
0.0
220
0.0
230
-1.0
 70
     8
 71
     3
 72
     9
 73
     5
 74
     0
 42
0.0000001
 43
0.0000001
 40
0.1937856429176761
 40
0.1937856429176761
 40
0.1937856429176761
 40
0.1937856429176761
 40
8.961700572298635
 40
13.87305476249605
 40
13.87305476249605
 40
13.87305476249605
 40
13.87305476249605
 10
392.187978474576
 20
403.0670610647753
 30
0.0
 10
389.2653082338511
 20
403.0585392610178
 30
0.0
 10
384.7055100137031
 20
403.0444203396964
 30
0.0
 10
380.1462868357812
 20
402.9708771665286
 30
0.0
 10
378.5094626362829
 20
402.9391274319696
 30
0.0
  0
SPLINE
  5
119F
100
AcDbEntity
  8
VHH-025
100
AcDbSpline
210
0.0
220
0.0
230
1.0
 70
     8
 71
     3
 72
     8
 73
     4
 74
     0
 42
0.0000001
 43
0.0000001
 40
0.0
 40
0.0
 40
0.0
 40
0.0
 40
7.059979654330966
 40
7.059979654330966
 40
7.059979654330966
 40
7.059979654330966
 10
385.7625187521189
 20
400.5504793798663
 30
0.0
 10
383.4094234966455
 20
400.5165706675889
 30
0.0
 10
381.0563282411717
 20
400.4826619553109
 30
0.0
 10
378.7031316223883
 20
400.4586172167446
 30
0.0
  0
SPLINE
  5
11A0
100
AcDbEntity
  8
VHH-025
100
AcDbSpline
210
0.0
220
0.0
230
1.0
 70
     8
 71
     3
 72
    12
 73
     8
 74
     6
 42
0.0000001
 43
0.0000001
 44
0.0000000001
 40
0.0
 40
0.0
 40
0.0
 40
0.0
 40
0.8322508665744818
 40
2.011237394673402
 40
3.686069081067093
 40
5.492156402915678
 40
5.761172455457492
 40
5.761172455457492
 40
5.761172455457492
 40
5.761172455457492
 10
391.3392859823197
 20
401.9625931507257
 30
0.0
 10
391.0794378480055
 20
401.8651850991467
 30
0.0
 10
390.451482617607
 20
401.6297864666595
 30
0.0
 10
389.2684626766578
 20
401.2938427435365
 30
0.0
 10
387.7600096486407
 20
400.9224443885203
 30
0.0
 10
386.5320793171458
 20
400.68576877212
 30
0.0
 10
385.8508351335357
 20
400.5660054737316
 30
0.0
 10
385.7625187521189
 20
400.5504793798658
 30
0.0
 11
391.3392859823197
 21
401.9625931507257
 31
0.0
 11
390.5567384732766
 21
401.6792896014989
 31
0.0
 11
389.4262540076579
 21
401.344604516033
 31
0.0
 11
387.7994805383587
 21
400.9462714175684
 31
0.0
 11
386.0274385894972
 21
400.5972459949735
 31
0.0
 11
385.7625187521189
 21
400.5504793798658
 31
0.0
  0
ARC
  5
11A1
100
AcDbEntity
  8
VHH-025
100
AcDbCircle
 10
392.191477
 20
401.867066
 30
0.0
 40
1.2
100
AcDbArc
 50
3.0
 51
90.16706
  0
LINE
  5
11A2
100
AcDbEntity
  8
VHH-025
100
AcDbLine
 10
393.389833
 20
401.929869
 30
0.0
 11
391.339286
 21
401.962593
 31
0.0
  0
LINE
  5
11A3
100
AcDbEntity
  8
VHH-025
100
AcDbLine
 10
379.792968
 20
386.5
 30
0.0
 11
378.509463
 21
402.939127
 31
0.0
  0
LINE
  5
11A4
100
AcDbEntity
  8
VHH-025
100
AcDbLine
 10
393.389833
 20
401.929869
 30
0.0
 11
394.198478
 21
386.5
 31
0.0
  0
LINE
  5
11A5
100
AcDbEntity
  8
VHH-025
100
AcDbLine
 10
385.762519
 20
400.550479
 30
0.0
 11
386.231271
 21
386.5
 31
0.0
  0
LINE
  5
11A6
100
AcDbEntity
  8
VHH-025
100
AcDbLine
 10
391.339286
 20
401.962593
 30
0.0
 11
392.109946
 21
386.5
 31
0.0
  0
LINE
  5
11A7
100
AcDbEntity
  8
VHH-025
100
AcDbLine
 10
366.007505
 20
402.588172
 30
0.0
 11
366.927299
 21
387.500224
 31
0.0
  0
LINE
  5
11A8
100
AcDbEntity
  8
VHH-025
100
AcDbLine
 10
260.953238
 20
522.99641
 30
0.0
 11
362.259706
 21
522.996413
 31
0.0
  0
LINE
  5
11A9
100
AcDbEntity
  8
VHH-025
100
AcDbLine
 10
260.953238
 20
521.99641
 30
0.0
 11
362.49406
 21
521.99641
 31
0.0
  0
SPLINE
  5
11AA
100
AcDbEntity
  8
VHH-025
100
AcDbSpline
210
0.0
220
0.0
230
1.0
 70
     8
 71
     3
 72
    16
 73
    12
 74
     0
 42
0.0000001
 43
0.0000001
 40
0.1050504003577393
 40
0.1050504003577393
 40
0.1050504003577393
 40
0.1050504003577393
 40
5.497923559405323
 40
11.75381661664571
 40
15.98342477697918
 40
18.30450869996882
 40
21.45476475459092
 40
23.94926090769282
 40
27.59481708481393
 40
29.44434721604997
 40
31.293877347286
 40
31.293877347286
 40
31.293877347286
 40
31.293877347286
 10
260.9532384992307
 20
507.7307931397622
 30
0.0
 10
262.7506837127093
 20
507.8137886417676
 30
0.0
 10
266.6327667763525
 20
507.9973535752765
 30
0.0
 10
271.8547655068177
 20
508.9089714419528
 30
0.0
 10
276.0535236040031
 20
509.6908467953166
 30
0.0
 10
279.1265760844089
 20
510.7686077994872
 30
0.0
 10
281.2637781930971
 20
512.451788667106
 30
0.0
 10
283.0442228928223
 20
515.0285557374668
 30
0.0
 10
283.6987096459615
 20
517.6915238078495
 30
0.0
 10
283.6968545859599
 20
520.1381348776571
 30
0.0
 10
283.7470722344005
 20
521.3704694757548
 30
0.0
 10
283.7721810586208
 20
521.986636774804
 30
0.0
  0
SPLINE
  5
11AB
100
AcDbEntity
  8
VHH-025
100
AcDbSpline
210
0.0
220
0.0
230
1.0
 70
     8
 71
     3
 72
    15
 73
    11
 74
     0
 42
0.0000001
 43
0.0000001
 40
0.1051965741596208
 40
0.1051965741596208
 40
0.1051965741596208
 40
0.1051965741596208
 40
7.669253737098932
 40
15.45437869041568
 40
20.86081248323837
 40
24.06382690725172
 40
29.36972090551076
 40
33.62696527834292
 40
36.74194354924412
 40
38.79269265411739
 40
38.79269265411739
 40
38.79269265411739
 40
38.79269265411739
 10
260.9532384992307
 20
503.1090767934806
 30
0.0
 10
263.4708395707075
 20
503.2959803655308
 30
0.0
 10
268.5790355219087
 20
503.679111878278
 30
0.0
 10
275.369297066909
 20
504.9697573434882
 30
0.0
 10
280.7074613155309
 20
506.3706271498618
 30
0.0
 10
284.67180239972
 20
508.881576264906
 30
0.0
 10
287.3428297533355
 20
512.3559059797202
 30
0.0
 10
288.6754916812769
 20
516.4373319487117
 30
0.0
 10
288.8276729197059
 20
519.5852372115791
 30
0.0
 10
288.9115273034131
 20
521.3042168056849
 30
0.0
 10
288.9448167687314
 20
521.9866368421048
 30
0.0
  0
SPLINE
  5
11AC
100
AcDbEntity
  8
VHH-025
100
AcDbSpline
210
0.0
220
0.0
230
-1.0
 70
     8
 71
     3
 72
    15
 73
    11
 74
     0
 42
0.0000001
 43
0.0000001
 40
0.1051965741596208
 40
0.1051965741596208
 40
0.1051965741596208
 40
0.1051965741596208
 40
7.669253737098932
 40
15.45437869041568
 40
20.86081248323837
 40
24.06382690725172
 40
29.36972090551076
 40
33.62696527834292
 40
36.74194354924412
 40
38.79269265411739
 40
38.79269265411739
 40
38.79269265411739
 40
38.79269265411739
 10
260.9532384992307
 20
541.8739703144551
 30
0.0
 10
263.4708395707075
 20
541.687066742405
 30
0.0
 10
268.5790355219087
 20
541.3039352296578
 30
0.0
 10
275.369297066909
 20
540.0132897644475
 30
0.0
 10
280.7074613155309
 20
538.612419958074
 30
0.0
 10
284.67180239972
 20
536.1014708430298
 30
0.0
 10
287.3428297533355
 20
532.6271411282155
 30
0.0
 10
288.6754916812769
 20
528.5457151592241
 30
0.0
 10
288.8276729197059
 20
525.3978098963566
 30
0.0
 10
288.9115273034131
 20
523.6788303022508
 30
0.0
 10
288.9448167687314
 20
522.9964102658309
 30
0.0
  0
SPLINE
  5
11AD
100
AcDbEntity
  8
VHH-025
100
AcDbSpline
210
0.0
220
0.0
230
-1.0
 70
     8
 71
     3
 72
    16
 73
    12
 74
     0
 42
0.0000001
 43
0.0000001
 40
0.1050504003577393
 40
0.1050504003577393
 40
0.1050504003577393
 40
0.1050504003577393
 40
5.497923559405323
 40
11.75381661664571
 40
15.98342477697918
 40
18.30450869996882
 40
21.45476475459092
 40
23.94926090769282
 40
27.59481708481393
 40
29.44434721604997
 40
31.293877347286
 40
31.293877347286
 40
31.293877347286
 40
31.293877347286
 10
260.9532384992307
 20
537.2522539681735
 30
0.0
 10
262.7506837127093
 20
537.1692584661682
 30
0.0
 10
266.6327667763525
 20
536.9856935326593
 30
0.0
 10
271.8547655068177
 20
536.0740756659829
 30
0.0
 10
276.0535236040031
 20
535.2922003126191
 30
0.0
 10
279.1265760844089
 20
534.2144393084486
 30
0.0
 10
281.2637781930971
 20
532.5312584408298
 30
0.0
 10
283.0442228928223
 20
529.9544913704689
 30
0.0
 10
283.6987096459615
 20
527.2915233000863
 30
0.0
 10
283.6968545859599
 20
524.8449122302786
 30
0.0
 10
283.7470722344005
 20
523.6125776321809
 30
0.0
 10
283.7721810586208
 20
522.9964103331317
 30
0.0
  0
LWPOLYLINE
  5
11AE
100
AcDbEntity
  8
VHH-025
100
AcDbPolyline
 90
        2
 70
     0
 43
0.0
 10
349.86991
 20
521.99641
 10
352.830243
 20
508.38663
  0
LINE
  5
11AF
100
AcDbEntity
  8
VHH-025
100
AcDbLine
 10
354.624903
 20
557.396535
 30
0.0
 11
350.483595
 21
564.53552
 31
0.0
  0
ARC
  5
11B0
100
AcDbEntity
  8
VHH-025
100
AcDbCircle
 10
353.759908
 20
556.894754
 30
0.0
 40
1.0
100
AcDbArc
 50
307.031902
 51
30.117917
  0
LINE
  5
11B1
100
AcDbEntity
  8
VHH-025
100
AcDbLine
 10
354.362168
 20
556.096453
 30
0.0
 11
353.479406
 21
555.430474
 31
0.0
  0
LWPOLYLINE
  5
11B2
100
AcDbEntity
  8
VHH-025
100
AcDbPolyline
 90
        5
 70
     0
 43
0.0
 10
352.830243
 20
508.38663
 10
353.661601
 20
504.204783
 10
355.153978
 20
496.133827
 10
355.832276
 20
492.256613
 10
355.940095
 20
491.622944
  0
ARC
  5
147A
100
AcDbEntity
  8
VHH-025
100
AcDbCircle
 10
370.89623
 20
147.1715
 30
0.0
 40
465.913779
100
AcDbArc
 50
97.861411
 51
109.816114
  0
ARC
  5
147B
100
AcDbEntity
  8
VHH-025
100
AcDbCircle
 10
363.398531
 20
90.893171
 30
0.0
 40
516.978761
100
AcDbArc
 50
94.581513
 51
106.918695
  0
LINE
  5
147C
100
AcDbEntity
  8
VHH-025
100
AcDbLine
 10
18.1961
 20
593.366079
 30
0.0
 11
19.131218
 21
585.5
 31
0.0
  0
LINE
  5
147D
100
AcDbEntity
  8
VHH-025
100
AcDbLine
 10
11.305941
 20
585.5
 30
0.0
 11
12.241059
 21
593.366079
 31
0.0
  0
LINE
  5
147E
100
AcDbEntity
  8
VHH-025
100
AcDbLine
 10
10.71858
 20
585.5
 30
0.0
 11
12.241059
 21
597.86657
 31
0.0
  0
LINE
  5
147F
100
AcDbEntity
  8
VHH-025
100
AcDbLine
 10
19.71858
 20
585.5
 30
0.0
 11
18.1961
 21
597.86657
 31
0.0
  0
SPLINE
  5
1480
100
AcDbEntity
  8
VHH-025
100
AcDbSpline
210
0.0
220
0.0
230
-1.0
 70
     8
 71
     3
 72
    16
 73
    12
 74
    10
 42
0.0000001
 43
0.0000001
 44
0.0000000001
 40
0.0
 40
0.0
 40
0.0
 40
0.0
 40
1.162224389485535
 40
2.355902817985682
 40
3.515791744985435
 40
4.373377683802992
 40
5.515721028603126
 40
6.396471174835522
 40
7.295099172860427
 40
7.900392698522047
 40
8.766036361284736
 40
8.766036361284736
 40
8.766036361284736
 40
8.766036361284736
 10
18.19609980652239
 20
593.36607869314
 30
0.0
 10
18.10306791981224
 20
593.7460297604164
 30
0.0
 10
17.91448636357764
 20
594.5162147592782
 30
0.0
 10
17.14087990625905
 20
595.4535351464766
 30
0.0
 10
16.17687625282609
 20
595.9699890903737
 30
0.0
 10
15.12607081704009
 20
596.1533780705179
 30
0.0
 10
14.15095427123205
 20
595.9591604822824
 30
0.0
 10
13.32542101322216
 20
595.4214792795404
 30
0.0
 10
12.7707458528396
 20
594.8389829799991
 30
0.0
 10
12.39411851827871
 20
594.134286260287
 30
0.0
 10
12.29776393965219
 20
593.6506800206948
 30
0.0
 10
12.24105945830342
 20
593.36607869314
 30
0.0
 11
18.19609980652239
 21
593.36607869314
 31
0.0
 11
17.83673966895185
 21
594.4713505253335
 31
0.0
 11
17.08491110095383
 21
595.3985085458502
 31
0.0
 11
16.06455255842411
 21
595.9500615964839
 31
0.0
 11
15.21857963240836
 21
596.0907152523409
 31
0.0
 11
14.09849487477549
 21
595.866308360451
 31
0.0
 11
13.35224816386289
 21
595.3985085458502
 31
0.0
 11
12.74206616617266
 21
594.7388039085094
 31
0.0
 11
12.45877302555891
 21
594.2038971421575
 31
0.0
 11
12.24105945830342
 21
593.36607869314
 31
0.0
  0
ARC
  5
1481
100
AcDbEntity
  8
VHH-025
100
AcDbCircle
 10
15.21858
 20
597.5
 30
0.0
 40
3.0
100
AcDbArc
 50
7.018512
 51
172.981488
  0
SPLINE
  5
1482
100
AcDbEntity
  8
VHH-025
100
AcDbSpline
210
0.0
220
0.0
230
-1.0
 70
     8
 71
     3
 72
    12
 73
     8
 74
     6
 42
0.0000001
 43
0.0000001
 44
0.0000000001
 40
0.0
 40
0.0
 40
0.0
 40
0.0
 40
0.2726448924860046
 40
0.7202654768540803
 40
1.190419341255433
 40
1.81124468762639
 40
1.828039750959963
 40
1.828039750959963
 40
1.828039750959963
 40
1.828039750959963
 10
333.2569462071114
 20
610.7775232621084
 30
0.0
 10
333.2035382956353
 20
610.8512721637346
 30
0.0
 10
333.0624468030481
 20
611.0460999021637
 30
0.0
 10
332.7318118202226
 20
611.2869121757756
 30
0.0
 10
332.2224470757956
 20
611.4070348929852
 30
0.0
 10
331.8514401754746
 20
611.3776636675047
 30
0.0
 10
331.6397243848935
 20
611.3591311108141
 30
0.0
 10
331.6341477439054
 20
611.3586429591509
 30
0.0
 11
333.2569462071114
 21
610.7775232621084
 31
0.0
 11
333.0882742421399
 21
610.9917311182466
 31
0.0
 11
332.726431826255
 21
611.2552349201482
 31
0.0
 11
332.2715469753438
 21
611.374081159563
 31
0.0
 11
331.6508789371873
 21
611.3601062854108
 31
0.0
 11
331.6341477439054
 21
611.3586429591509
 31
0.0
  0
SPLINE
  5
1483
100
AcDbEntity
  8
VHH-025
100
AcDbSpline
210
0.0
220
0.0
230
-1.0
 70
     8
 71
     3
 72
    11
 73
     7
 74
     5
 42
0.0000001
 43
0.0000001
 44
0.0000000001
 40
0.0
 40
0.0
 40
0.0
 40
0.0
 40
0.6268006055070936
 40
1.215244760831706
 40
1.618964794629464
 40
1.942964802856018
 40
1.942964802856018
 40
1.942964802856018
 40
1.942964802856018
 10
331.7900705025185
 20
609.9693733331464
 30
0.0
 10
331.6973181551462
 20
610.1658086994225
 30
0.0
 10
331.5174893496079
 20
610.5466587618058
 30
0.0
 10
330.9667955074471
 20
610.7386325925924
 30
0.0
 10
330.5302995334018
 20
610.753290482639
 30
0.0
 10
330.2885658533056
 20
610.7273953489027
 30
0.0
 10
330.1809396923963
 20
610.7158661576491
 30
0.0
 11
331.7900705025185
 21
609.9693733331464
 31
0.0
 11
331.4496850015548
 21
610.4956971021306
 31
0.0
 11
330.9069310294344
 21
610.7230396843347
 31
0.0
 11
330.5037407098516
 21
610.7437141101886
 31
0.0
 11
330.1809396923963
 21
610.7158661576491
 31
0.0
  0
LINE
  5
1484
100
AcDbEntity
  8
VHH-025
100
AcDbLine
 10
307.169753
 20
608.706532
 30
0.0
 11
307.152221
 21
608.261178
 31
0.0
  0
ARC
  5
1485
100
AcDbEntity
  8
VHH-025
100
AcDbCircle
 10
737.124023
 20
-3316.281109
 30
0.0
 40
3948.025825
100
AcDbArc
 50
95.916275
 51
96.252373
  0
ARC
  5
1486
100
AcDbEntity
  8
VHH-025
100
AcDbCircle
 10
377.012421
 20
115.327919
 30
0.0
 40
498.102065
100
AcDbArc
 50
95.227028
 51
98.061345
  0
ENDSEC
  0
SECTION
  2
OBJECTS
  0
DICTIONARY
  5
C
100
AcDbDictionary
  3
ACAD_GROUP
350
D
  3
ACAD_MLINESTYLE
350
E
  3
AMACAD
350
975
  0
DICTIONARY
  5
D
102
{ACAD_REACTORS
330
C
102
}
100
AcDbDictionary
  0
DICTIONARY
  5
E
102
{ACAD_REACTORS
330
C
102
}
100
AcDbDictionary
  3
STANDARD
350
1B
  0
DICTIONARY
  5
975
102
{ACAD_REACTORS
330
C
102
}
100
AcDbDictionary
  3
AM_LOADER
350
976
  0
MLINESTYLE
  5
1B
102
{ACAD_REACTORS
330
E
102
}
100
AcDbMlineStyle
  2
STANDARD
 70
     0
  3

 62
     0
 51
90.0
 52
90.0
 71
     2
 49
0.5
 62
   256
  6
BYLAYER
 49
-0.5
 62
   256
  6
BYLAYER
  0
AMLOADER
  5
976
102
{ACAD_REACTORS
330
975
102
}
100
AMLoader
 90
        1
 70
     3
 70
     0
 70
   921
 70
   861
280
     0
  0
ENDSEC
  0
EOF
